» » »

The Kooks - Keep Your Head Up Tabs

Artists:  A B C D E F G H I J K L M N O P Q R S T U V W X Y Z # 

Keep Your Head Up Tabs

(ver. 1) Click to play this song!
The Kooks
 Rating:
4.3/5 (26 votes)

 Keep Your Head Up  lessons Tabs too difficult? Try these video lessons and learn fast
 
                [Intro]

   C#                                     F#                 F#m
e|------------------|-------------------|------------------|-------------------|
B|------------------|-------------------|---------11-------|---------10--------|
G|---------10-------|-------------------|------11----11----|------11----11-----|
D|------11----11----|------11-----------|---11----------11-|---11----------11--|
A|---11----------11-|---11--------------|-9----------------|-9-----------------|
E|-9----------------|-9-------9--11--13-|------------------|-------------------|

   C#                                     F#                 F#m (down strum) 
e|------------------|-------------------|------------------|-9-----------------|
B|------------------|-------------------|---------11-------|-10----------------|
G|---------10-------|-------------------|------11----11----|-11----------------|
D|------11----11----|-----11------------|---11----------11-|-11----------------|
A|---11----------11-|--11---------------|-9----------------|-9-----------------|
E|-9----------------|-9-------9--11--13-|------------------|-------------------|


[Verse]

   C#                                     F#                 F#m
e|------------------|-------------------|------------------|-------------------|
B|------------------|-------------------|---------11-------|---------10--------|
G|---------10-------|-------------------|------11----11----|------11----11-----|
D|------11----11----|------11-----------|---11----------11-|---11----------11--|
A|---11----------11-|---11--------------|-9----------------|-9-----------------|
E|-9----------------|-9-------9--11--13-|------------------|-------------------|

   C#                                     F#                 F#m (down strum) 
e|------------------|-------------------|------------------|-9-----------------|
B|------------------|-------------------|---------11-------|-10----------------|
G|---------10-------|-------------------|------11----11----|-11----------------|
D|------11----11----|-----11------------|---11----------11-|-11----------------|
A|---11----------11-|--11---------------|-9----------------|-9-----------------|
E|-9----------------|-9-------9--11--13-|------------------|-------------------|

  C#                                      F#                 F#m
e|------------------|-------------------|------------------|-------------------|
B|------------------|-------------------|---------11-------|---------10--------|
G|---------10-------|-------------------|------11----11----|------11----11-----|
D|------11----11----|------11-----------|---11----------11-|---11----------11--|
A|---11----------11-|---11--------------|-9----------------|-9-----------------|
E|-9----------------|-9-------9--11--13-|------------------|-------------------|

   C#                                     F#                 F#m (down strum)
e|------------------|-------------------|------------------|-9-----------------|
B|------------------|-------------------|---------11-------|-10----------------|
G|---------10-------|-------------------|------11----11----|-11----------------|
D|------11----11----|-----11------------|---11----------11-|-11----------------|
A|---11----------11-|--11---------------|-9----------------|-9-----------------|
E|-9----------------|-9-------9--11--13-|------------------|-------------------|


[Chorus]

strum the chords

C#     F#  F#m   x4            
Submit corrections


        Keep Your Head Up  lessons Hard to play? Try these video lessons and learn fast Keep Your Head Up  lessons
        
↑ Back to top | Tablatures and chords for acoustic guitar and electric guitar, ukulele, drums are parodies/interpretations of the original songs. You may use it for private study, scholarship, research or language learning purposes only