» » »

The Kooks - Hatful Of Love Tabs

Artists:  A B C D E F G H I J K L M N O P Q R S T U V W X Y Z # 

Hatful Of Love Tabs

(ver. 1) Click to play this song!
The Kooks
 Rating:
4.3/5 (28 votes)

 Hatful Of Love  lessons Tabs too difficult? Try these video lessons and learn fast
 
                Intro:
                           G
  1 + a 2 + a  3 + a 4 + a 1 + a 2  + a 3 + a 4  + a 1 + a 2  + a 3 + a 4 + a
e|-------------------------------3----3---3---3----3-------3----3-------------
B|---------------3-----1-----0---0h1--0-------0h1--0---0---0h1--0---3-----1---
G|-----------2/4---4-2-----------0----0-------0----0-------0----0-4---4-2-----
D|-----------------------0-----0-0h2--0-----0-0h2--0-----0-0h2--0-----------0-
A|----------------------------------------------------------------------------
E|-------------------------3------------3------------3------------------------

   G
   1 + a 2  + a 3 + a 4  + a 1 + a 2  + a 3 + a 4 + a
e|-------3----3---3---3----3-------3----3-------------
B|---0---0h1--0-------0h1--0---0---0h1--0---3-----1---
G|-------0----0-------0----0-------0----0-4---4-2-----
D|-----0-0h2--0-----0-0h2--0-----0-0h2--0-------------
A|----------------------------------------------------
E|-3------------3------------3------------------------

Verse 1:

  C
  1 + a 2 + a 3 + a 4 + a 1 + a 2 + a 3 + a 4 + a
e|0-----------------------8-----------8-----8---0-
B|1-----------------------8-----------8-----8---0-
G|0-----------------------9-----------9-----9---0-
D|2-----------------------10----------10----10--0-
A|3-----------------------10----------10----10----
E|3-----------------------8-----------8-----8-----

    I gotta hatful of love for you...
                               So why you waitin' so long?

   G                                      Dsus4 C
   1 + a 2  + a 3 + a 4  + a 1 + a 2  + a 3 + a 4 + a
e|-------3----3-------3----3---3---3----3-------------
B|---0---0h1--0---0---0h1--0-------0h1--0-3-333-1-111-
G|-------0----0-------0----0-------0----0-0-000-0-000-
D|-----0-0h2--0-----0-0h2--0-----0-0h2--0-4-444-2-222-
A|----------------------------------------5-555-3-333-
E|-3------------3------------3------------------------

  C
  1 + a 2 + a 3 + a 4 + a 1 + a 2 + a 3 + a 4 + a
e|0-------------------0---0-----------0-----0---0-
B|1-----------------1-----1-----------1-----1---1-
G|0---------------------0-0-----------0-----0---0-
D|2-----------------------2-----------2-----2---2-
A|3-----------------------3-----------3-----3---3-
E|3-----------------------3-----------3-----3---3-

        All my love-for-you babe
                               Oh, is going so strong

   G                                      Dsus4 C
   1 + a 2  + a 3 + a 4  + a 1 + a 2  + a 3 + a 4 + a
e|-------3----3-------3----3---3---3----3-------------
B|-------0h1--0---0---0h1--0-------0h1--0-3-333-1-1-0-
G|---0---0----0-------0----0-------0----0-0-000-0-0-0-
D|-----0-0h2--0-----0-0h2--0-----0-0h2--0-4-444-2-2-0-
A|----------------------------------------5-555-3-3-0-
E|-3------------3------------3------------------------

Chorus:

  D                       Em/G
  1 + a 2 + a 3 + a 4 + a 1 + a 2 + a 3 + a 4 + a
e|2-----2-----2-----2---2-3-----3-----3-----3---3-
B|3-----3-----3-----3---3-0-----0-----0-----0---0-
G|2-----2-----2-----2---2-0-----0-----0-----0---0-
D|0-----0-----0-----0---0-2-----2-----2-----2---2-
A|------------------------2-----2-----2-----2---2-
E|------------------------0-----0-----0-----0---0-

     But oh honey, please...        Don't shed no tears...
  C
  1 + a 2 + a 3 + a 4 + a
e|0-----0-----0-----0---0-
B|1-----1-----1-----1---1-
G|0-----0-----0-----0---0-
D|2-----2-----2-----2---2-
A|3-----3-----3-----3---3-
E|3-----3-----3-----3---3-

           As long as I'm here...

Interlude:

   G                                     Dsus4 C
   1 + a 2  + a 3 + a 4 + a 1 + a 2  + a 3 + a 4 + a
e|-------3----3---3---------------3----3-------------
B|---0---0h1--0---------------0---0h1--0-3-333-1-1---
G|-------0----0-----0-----0-------0----0-0-000-0-0---
D|-----0-0h2--0-------0h2-------0-0h2--0-4-444-2-2---
A|---------------------------------------5-555-3-3---
E|-3------------3-----------3------------------------

    1 + a 2 + a 3 + a 4 + a 1 +  a 2 + a 3 + a 4 + a
e|----3-----3-----2---0-------0h3--------------------
B|--------5-----1---1----------------1-----1---------
G|2/4---4-----4-----------0-0----------2---------2---
D|---------------------------------3-----2---2-0-----
A|-------------------------------------------------0-
E|---------------------------------------------------

   G                                      Dsus4 C
   1 + a 2  + a 3 + a 4  + a 1 + a 2  + a 3 + a 4 + a
e|-------3----3-------3----3---3---3----3-------------
B|-------0h1--0---0---0h1--0-------0h1--0-3-333-1-111-
G|---0---0----0-------0----0-------0----0-0-000-0-000-
D|-----0-0h2--0-----0-0h2--0-----0-0h2--0-4-444-2-222-
A|----------------------------------------5-555-3-333-
E|-3------------3------------3------------------------

Verse 2:

  C
  1 + a 2 + a 3 + a 4 + a 1 + a 2 + a 3 + a 4 + a
e|0-------------------0---0-----0-----0---0-0-----
B|1-----------------1-----1-----1-----1---1-1-----
G|0---------------------0-0-----0-----0---0-0-----
D|2-----------------------2-----2-----2---2-2-----
A|3-----------------------3-----3-----3---3-3-----
E|3-----------------------3-----3-----3---3-3-----

    I gotta hatful of love for you...
                               So why you waiting so long?

   G                                      Dsus4 C
   1 + a 2  + a 3 + a 4  + a 1 + a 2  + a 3 + a 4 + a
e|-------3----3-------3----3---3---3----3-------------
B|---0---0h1--0---0---0h1--0-------0h1--0-3-333-1-111-
G|-------0----0-------0----0-------0----0-0-000-0-000-
D|-----0-0h2--0-----0-0h2--0-----0-0h2--0-4-444-2-222-
A|----------------------------------------5-555-3-333-
E|-3------------3------------3------------------------

  C
  1 + a 2 + a 3 + a 4 + a 1 + a 2 + a 3 + a 4 + a
e|0-----------------------15----------0-----0---0-
B|1-----------------------15----------1-----1---0-
G|0-----------------------16----------0-----0---0-
D|2-----------------------17----------2-----2---0-
A|3-----------------------17----------3-----3-----
E|3-----------------------15----------3-----3-----
                          * I can't play chords this high on my acoustic
                            guitar, so I just play C at fret 8.

        All my love for you    Well it is growin' so strong

   G                                      Dsus4 C
   1 + a 2  + a 3 + a 4  + a 1 + a 2  + a 3 + a 4 + a
e|-------3----3---3---3----3-------3----3-------------
B|---0---0h1--0-------0h1--0---0---0h1--0-3-333-1-1-0-
G|-------0----0-------0----0-------0----0-0-000-0-0-0-
D|-----0-0h2--0-----0-0h2--0-----0-0h2--0-4-444-2-2-0-
A|----------------------------------------5-555-3-3-0-
E|-3------------3------------3------------------------

Chorus:

  D                       Em/G
  1 + a 2 + a 3 + a 4 + a 1 + a 2 + a 3 + a 4 + a
e|2-----2-----2-----2---2-3-----3-----3-----3---3-
B|3-----3-----3-----3---3-0-----0-----0-----0---0-
G|2-----2-----2-----2---2-0-----0-----0-----0---0-
D|0-----0-----0-----0---0-2-----2-----2-----2---2-
A|------------------------2-----2-----2-----2---2-
E|------------------------0-----0-----0-----0---0-

     But oh honey, please...        Don't shed no tears...
  C
  1 + a 2 + a 3 + a 4 + a
e|0-----0-----0-----0---0-
B|1-----1-----1-----1---1-
G|0-----0-----0-----0---0-
D|2-----2-----2-----2---2-
A|3-----3-----3-----3---3-
E|3-----3-----3-----3---3-

           As long as I'm here...

Interlude:

   G                                           Dsus4 C
   1 + a 2  + a 3 + a 4   +   a   1 + a 2  + a 3 + a 4 + a
e|-------3----3---3-----------------3---3----3-------------
B|---0---0h1--0-------1p0---------------0h1--0-3-333-1-1-0-
G|-------0----0-----------2p0-----------0----0-0-000-0-0-0-
D|-----0-0h2--0-----0---------2p0-----0-0h2--0-4-444-2-2-0-
A|---------------------------------------------5-555-3-3-0-
E|-3------------3-----------------3------------------------

   G                                      Dsus4 C
   1 + a 2  + a 3 + a 4  + a 1 + a 2  + a 3 + a 4 + a
e|-------3----3-------3----3---3---3----3-------------
B|---0---0h1--0---0---0h1--0-------0h1--0-3-333-1-----
G|-------0----0-------0----0-------0----0-0-000-0-----
D|-----0-0h2--0-----0-0h2--0-----0-0h2--0-4-444-2-----
A|----------------------------------------5-555-3-----
E|-3------------3------------3------------------------

Verse 3:

  NC                      C
  1 + a 2 + a 3 + a 4 + a 1 + a 2 + a 3 + a 4 + a
e|--------------------0---0-----------0-----0-----
B|------------------1-----1-----------1-----1-----
G|----------------------0-0-----------0-----0-----
D|------------------------2-----------2-----2-----
A|------------------------3-----------3-----3-----
E|------------------------3-----------3-----3-----

     Well I care for you...  So why you waitin' so long?
   G
   1 + a 2  + a 3 + a 4 + a 1 + a 2  + a 3 + a 4 + a
e|-------3----3-------------------3----3-------3-3-3-
B|---0---0h1--0---0---1-333-------0h1--0---0---0-0-1-
G|-------0----0-------0-000-------0----0-------0-0-0-
D|-----0-0h2--0-----0-2-444-------0h2--0-----0-0-0-2-
A|--------------------3-555--------------------x-x-x-
E|-3------------------------3------------3-----3-3-3-

  C
  1 + a 2 + a 3 + a 4 + a 1 + a 2 + a 3 + a 4 + a
e|0-----------------------0-----0-----0---0-0-----
B|1-----------------------1-----1-----1---1-1-----
G|0-----------------------0-----0-----0---0-0-----
D|2-----------------------2-----2-----2---2-2-----
A|3-----------------------3-----3-----3---3-3-----
E|3-----------------------3-----3-----3---3-3-----

      You carry on like Mary Lou...
                              But why you takin' so long?

   G                                      Dsus4 C
   1 + a 2  + a 3 + a 4  + a 1 + a 2  + a 3 + a 4 + a
e|-------3----3-------3----3---3---3----3-------------
B|---0---0h1--0---0---0h1--0-------0h1--0-3-333-1-111-
G|-------0----0-------0----0-------0----0-0-000-0-000-
D|-----0-0h2--0-----0-0h2--0-----0-0h2--0-4-444-2-222-
A|----------------------------------------5-555-3-333-
E|-3------------3------------3------------------------

Chorus:

  D                       Em/G
  1 + a 2 + a 3 + a 4 + a 1 + a 2 + a 3 + a 4 + a
e|2-----2-----2-----2---2-3-----3-----3-----3---3-
B|3-----3-----3-----3---3-0-----0-----0-----0---0-
G|2-----2-----2-----2---2-0-----0-----0-----0---0-
D|0-----0-----0-----0---0-2-----2-----2-----2---2-
A|------------------------2-----2-----2-----2---2-
E|------------------------0-----0-----0-----0---0-

     But oh honey, please...        Don't shed no tears...
  C
  1 + a 2 + a 3 + a 4 + a
e|0-----0-----0---0-0-----
B|1-----1-----1---1-1-----
G|0-----0-----0---0-0-----
D|2-----2-----2---2-2-----
A|3-----3-----3---3-3-----
E|3-----3-----3---3-3-----

           As long as I'm here...
   G                                      Dsus4 C
   1 + a 2  + a 3 + a 4  + a 1 + a 2  + a 3 + a 4 + a
e|-------3----3-------3----3-------3----3-------------
B|---0---0h1--0---0---0h1--0---0---0h1--0-3-333-1-1-0-
G|-------0----0-------0----0-------0----0-0-000-0-0-0-
D|-----0-0h2--0-----0-0h2--0-----0-0h2--0-4-444-2-2-0-
A|----------------------------------------5-555-3-3-0-
E|-3------------3------------3------------------------

  D                       Em/G
  1 + a 2 + a 3 + a 4 + a 1 + a 2 + a 3 + a 4 + a
e|2-----2-----2-----2---2-3-----3-----3-----3---3-
B|3-----3-----3-----3---3-0-----0-----0-----0---0-
G|2-----2-----2-----2---2-0-----0-----0-----0---0-
D|0-----0-----0-----0---0-2-----2-----2-----2---2-
A|------------------------2-----2-----2-----2---2-
E|------------------------0-----0-----0-----0---0-

     But oh honey, please...        Don't shed no tears...
  C
  1 + a 2 + a 3 + a 4 + a
e|0-----0-----0---0-0-----
B|1-----1-----1---1-1-----
G|0-----0-----0---0-0-----
D|2-----2-----2---2-2-----
A|3-----3-----3---3-3-----
E|3-----3-----3---3-3-----

           As long as I'm here...

Outro:

Note: Since there are two distinct guitar parts here, this section is more
interpretive to attempt to include both a rhythm and solo part.

   G
   1 + a 2  + a 3 + a 4  + a 1 + a 2  + a 3   +   a   4 +   a
e|-------3----3-------3----3---3---3----3-----------------------
B|---0---0h1--0---0---0h1--0-------0h1--0-1p0-----------1p0-----
G|-------0----0-------0----0-------0----0-----2p0-----------2p0-
D|-----0-0h2--0-----0-0h2--0-----0-0h2--0---------2p0-----------
A|--------------------------------------------------------------
E|-3------------3------------3------------------------3---------

   G
   1 + a 2  + a 3 + a 4  + a 1 + a 2  + a 3 + a 4  + a
e|-------3----3-------3----3---3---3----3-------3----3-
B|---0---0h1--0---0---0h1--0-------0h1--0---0---0h1--0-
G|-------0----0-------0----0-------0----0-------0----0-
D|-----0-0h2--0-----0-0h2--0-----0-0h2--0-----0-0h2--0-
A|-----------------------------------------------------
E|-3------------3------------3------------3------------

  1  +  a  2  +  a  3  +  a  4  +  a  1  + a  2  +  a  3  +  a  4  +  a
e|------10----------------10---------------10----------------------------
B|---------12----10----------12----10---------12----10-10h12----12p10----
G|0-----------------------------------0-------------------------------12-
D|-----------------------------------------------------------------------
A|-----------------------------------------------------------------------
E|-----------------------------------------------------------------------

                                                                 C
  1  +  a  2  +  a  3  +  a  4  +  a  1 + a 2 + a 3 + a 4 +| a | 1
e|---------------------------0-----------------------------|---|-3-
B|10/8-----8-----------10---------------0-3---1-----1------|---|-0-
G|------9--------8//9-----9--------0--0---------2----------|-0-|-0-
D|------------------------------------------3-----2---2-0--|---|-0-
A|------------------------------------------------------0--|---|-2-
E|---------------------------------------------------------|---|-3-

                                                           ^   ^
            
Submit corrections


        Hatful Of Love  lessons Hard to play? Try these video lessons and learn fast Hatful Of Love  lessons
        
↑ Back to top | Tablatures and chords for acoustic guitar and electric guitar, ukulele, drums are parodies/interpretations of the original songs. You may use it for private study, scholarship, research or language learning purposes only