» » »

The Kooks - Bad Habit solo Tabs

Artists:  A B C D E F G H I J K L M N O P Q R S T U V W X Y Z # 

Bad Habit solo Tabs

(ver. 1) Click to play this song!
The Kooks
 Rating:
4.3/5 (22 votes)

 Bad Habit solo lessons Tabs too difficult? Try these video lessons and learn fast
 
                [Solo]
e|---------------------------------|-----------------------------|
B|---------------------------------|-----------------------------|
G|---------------------------------|-----------------------------|
D|---------------8------10/12--10--|-----8-----------------------|
A|-----------10-----10-------------|----------10--11--10--8--10--|
E|--8--10-11-----------------------|-----------------------------|
                                    
e|---------------------------------|-----------------------------|
B|---------------------------------|-----------------------------|
G|---------------------------------|-----------------------------|
D|---------------8------10/12--10--|-----8-------/15-----13------|
A|-----------10-----10-------------|----------10-----------------|
E|--8--10-11-----------------------|-----------------------------|            
Submit corrections


        Bad Habit solo lessons Hard to play? Try these video lessons and learn fast Bad Habit solo lessons
        
↑ Back to top | Tablatures and chords for acoustic guitar and electric guitar, ukulele, drums are parodies/interpretations of the original songs. You may use it for private study, scholarship, research or language learning purposes only