Home » T » The Hold Steady »

The Hold Steady - For Boston Tabs

Artists:  A B C D E F G H I J K L M N O P Q R S T U V W X Y Z # 

For Boston Tabs

(ver. 1) Click to play this song!
The Hold Steady
 Rating:
4/5 (4 votes)
                Tuning: Standard Tuning

Intro: 0:00 - 0:17
e|-0----0---------------||
B|-2----0---------------||
G|-2----1--4----4p2h4p2-||
D|-2----2--4----4p2h4p2-||
A|-0----2--2------------||
E|-0----0---------------||x4

Verse: 0:17 - 0:28
e|----------------------------||
B|-12-12-12-12-12-12-12-12-12-||
G|-9--9--9--9--9--9--9--9--9--||
D|----------------------------||
A|----------------------------||
E|----------------------------||

0:28 - 0:31
e|-------------------------------------||
B|-12-12-12-10-10-10-9-9-9-7-7-7-5-5-5-||
G|-9--9--9--9--9--9--9-9-9-9-9-9-9-9-9-||
D|-------------------------------------||
A|-------------------------------------||
E|-------------------------------------||

Chorus: 0:31 - 0:46
e|-0----0---------------||
B|-2----0---------------||
G|-2----1--4----4p2h4p2-||
D|-2----2--4----4p2h4p2-||
A|-0----2--2------------||
E|-0----0---------------||

Verse: 0:46 - 0:58
e|----------------------------||
B|-12-12-12-12-12-12-12-12-12-||
G|-9--9--9--9--9--9--9--9--9--||
D|----------------------------||
A|----------------------------||
E|----------------------------||

0:58 - 1:01
e|-------------------------------------||
B|-12-12-12-10-10-10-9-9-9-7-7-7-5-5-5-||
G|-9--9--9--9--9--9--9-9-9-9-9-9-9-9-9-||
D|-------------------------------------||
A|-------------------------------------||
E|-------------------------------------||

1:01 - 1:14
e|----------------------------||
B|-12-12-12-12-12-12-12-12-12-||
G|-9--9--9--9--9--9--9--9--9--||
D|----------------------------||
A|----------------------------||
E|----------------------------||

Chorus: 1:14 - 1:45
e|-0----0---------------||
B|-2----0---------------||
G|-2----1--4----4p2h4p2-||
D|-2----2--4----4p2h4p2-||
A|-0----2--2------------||
E|-0----0---------------||

Bridge: 1:45 - 1:57
E|-3------3------3------0----3------3------3------0----||
B|-3------3------3------1----3------3------3------1----||
G|-4----7-4----7-4----7-0----4----7-4----7-4----7-2----||
D|-5----7-5----7-5----7-2----5----7-5----7-5----7-2----||
A|-5----5-5----5-5----5-3----5----5-5----5-5----5-3----||
E|-3------3------3------0----3------3------3------0----||

Second Bridge: 1:58 - 2:25
Am------C--D

Chorus: 2:25 - 2:55
e|----------------------------||
B|-12-12-12-12-12-12-12-12-12-||
G|-9--9--9--9--9--9--9--9--9--||
D|----------------------------||
A|----------------------------||
E|----------------------------||

2:59 - 3:02
e|-------------------------------------||
B|-12-12-12-10-10-10-9-9-9-7-7-7-5-5-5-||
G|-9--9--9--9--9--9--9-9-9-9-9-9-9-9-9-||
D|-------------------------------------||
A|-------------------------------------||
E|-------------------------------------||
            
Submit corrections

↑ Back to top | Tablatures and chords for acoustic guitar and electric guitar, ukulele, drums are parodies/interpretations of the original songs. You may use it for private study, scholarship, research or language learning purposes only