» » »

The Head And The Heart - I Dont Mind Tabs

Artists:  A B C D E F G H I J K L M N O P Q R S T U V W X Y Z # 

I Dont Mind Tabs

(ver. 1) Click to play this song!
The Head And The Heart
 Rating:
4.3/5 (27 votes)

 I Dont Mind  lessons Tabs too difficult? Try these video lessons and learn fast
 
                CAPO 3

e|-----3-0-------------|---3-0------0----|---3-0-------------|---------0------|
B|-----------3-1-----1-|--------3----3p1-|---------3-1-----1-|------1h3--3--1-|
G|----------------0h2--|----------2------|--------------0h2--|---0h2-------2--|
D|---------------------|-----------------|-------------------|----------------|
A|---3-----3----3------|-3-----3---------|-3-----3----3------|-3--------------|
E|---------------------|-----------------|-------------------|----------------|

e|---3-x-0------------|---3-0------0-----|---3-0------------|---------0------|
B|---1-x-1--3-1-----1-|---1-1--3-----3p1-|---1-1--3-1-----1-|------1h3--3--1-|
G|----------0-0--0h2--|----------2-------|--------0-0--0h2--|---0h2-------2--|
D|--------------------|------------------|------------------|----------------|
A|---3-x-3--3-3-3-----|-3-3-3-3----3-----|-3-3-3--3-3-3-----|-3--------------|
E|--------------------|------------------|------------------|----------------|            
Submit corrections


        I Dont Mind  lessons Hard to play? Try these video lessons and learn fast I Dont Mind  lessons
        
↑ Back to top | Tablatures and chords for acoustic guitar and electric guitar, ukulele, drums are parodies/interpretations of the original songs. You may use it for private study, scholarship, research or language learning purposes only