Home » T » The Handsome Family »

The Handsome Family - Stalled Chords

Artists:  A B C D E F G H I J K L M N O P Q R S T U V W X Y Z # 

Stalled Chords

(ver. 1) Click to play this song!
The Handsome Family
INTRO (x2): D A G [Second Time with Fill 1]

   D        A        G
e|--------------------------------|
B|--------------------------------|
G|--------------------------------| Fill 1
D|--------------------------------|
A|-5--4-5-7-4--2-4-5-2--2-0-------|
E|--------------------------3-2-0-|

VERSE 1:
D     A    G                    D
Fa- lling snow spun above the road,
          A               G
winding through the dark woods
                  D        A        G              D
where my pick-up stalled.
               e|------------------------------------|
               B|------------------------------------|
               G|------------------------------------| Fill 2
               D|------------------------------------|
               A|-5--4-5-7-4--2-4-5-2--2-5-5-7b9r7-5-|
               E|------------------------------------|
VERSE 2:
D    A     G                        D
Fa- lling snow, hissing through the air,
         A            G
painting my windows white
                    Em     A     Em    A     Em    G      D
till the trees disappeared.
                  e|---------------------------------------|
                  B|---------------------------------------|
                  G|---------------------------------------| Chorus Fill
                  D|---------------------------------------|
                  A|---7-2-4-5-4---7-2-4-0-2---7-2---10-9-5|
                  E|-0-----------0-----------0-----3-------|
VERSE 3:
(D)  A    G                        D
E-   ven though I started to feel cold,
       A            G
and I was far from town,
                        Em    A     Em    A     Em    G      D
I just sat there in the dark
                     e|---------------------------------------|
                     B|---------------------------------------|
                     G|---------------------------------------| Chorus Fill
                     D|---------------------------------------|
                     A|---7-2-4-5-4---7-2-4-0-2---7-2---10-9-5|
                     E|-0-----------0-----------0-----3-------|
OUTRO:
  (D)        A      G             D     A     G
e|-------------------------------|-------------------|
B|-7---/10-7/5--5-5/3-3-3--2h3p2-|-------------------|
G|-------------------------------|2------------------|
D|-------------------------------|--4-5-7-5-4-2p0-0-0|
A|-------------------------------|-------------------|
E|-------------------------------|-------------------|

   D        A    G                D           A           G                  Em
e|-------------------------|-------------------------------------------------0-|
B|-------------------------|-------------------------------------------------0-|
G|-------------------------|-------------------------------------------------0-|
D|-------------------------|-7-----------------------------------------------2-|
A|-5--4-5-7-9--9-9/7-7/10--|--10-10p9-9-9-9-9-9p7-7-7-7-7-7p5-5--2-5-5-7b9r7-2-|
E|-------------------------|-------------------------------------------------0-|            
Submit corrections

↑ Back to top | Tablatures and chords for acoustic guitar and electric guitar, ukulele, drums are parodies/interpretations of the original songs. You may use it for private study, scholarship, research or language learning purposes only