» » »

The Gourds - Plaid Coat Tabs

Artists:  A B C D E F G H I J K L M N O P Q R S T U V W X Y Z # 

Plaid Coat Tabs

(ver. 1) Click to play this song!
The Gourds
 Rating:
4/5 (4 votes)

 Plaid Coat lessons Tabs too difficult? Try these video lessons and learn fast
 
                Plaid Coat 

Intro
    D         G5        D        G5                  D D+6 D D+6
-0-0H2-2-2-----------0-0H2-2-2---------------------------------------------------------------
----3--3-3-0-0H3-3-3----3--3-3-0-0H3-3-3-0-0-1-3-1-0---3-3-3------
----2--2-2----0--0-0----2--2-2----0--0-0-------------2-4-2-4------
--------------0--0-0--------------0--0-0-------------0-0-0-0------

            G 
Started out late
      C     G     D   D+6 D D+6 etc
In my Dirty Plaid Coat
           G 
Watched my heel
         C    G     D 
lift the dead satin dress
         G           
 
-0-0-1-0--------2--2--2------------------ then like intro
---------3-1----3--3--3------------------
-------------2--2--2--2------------------
-----------------------------------------
-----------------------------------------
-----------------------------------------
                    
One day I touched it with my hands   
and it scattered like scared birds 
By 3a.m. they were pidgeons 
with drinking problems and bad luck 
on God's front porch 
where the wind 
is dense with insects 
where the wind 
is dense with bugs 
Made of coffee and guitars 
_______________________________________________________
gareth d davies
            
Submit corrections


        Plaid Coat lessons Hard to play? Try these video lessons and learn fast Plaid Coat lessons
        
↑ Back to top | Tablatures and chords for acoustic guitar and electric guitar, ukulele, drums are parodies/interpretations of the original songs. You may use it for private study, scholarship, research or language learning purposes only