Home » T » The Fall Of Troy »

The Fall Of Troy - Rockstar Nailbomb Bass

Artists:  A B C D E F G H I J K L M N O P Q R S T U V W X Y Z # 

Rockstar Nailbomb Bass

(ver. 1) Click to play this song!
The Fall Of Troy
"Rockstar Nailbomb!
The Fall Of Troy


no bass in intro
(said so, sweetest voice...)

verse: X2
G--------------------------------------------------------------------------------------|
D-----------------------------------------5-55-55-55-55----7-77-77-77-77---------------|
A-7-77-77-77----5-7-77-77-77----5--------------------5-----------------------5---------|
E---------------7--------------------7-------------------7----------------------7------|

chorus:
G--------------------------------------------------------------|
D--------------------------------------------------------------|
A-77777777p5h77777777-5/33333333-------------------------------|
E--------------------------------------------------55555555-3--|

verse x2

chorus x2

as the outro its hard to hear but this is what i got.

the first part play with the rest of the band, they pause and play and its all open E
E-0---

Then it plays this 4 times
G---------------------------------|
D---------------------------------|
A---------------------------------|
E-0-000-0-0-3-333-555-------------|

Then it finishes with this
G---------------|
D---------------|
A---------------| (x1) (the first time)
E-0-0000-00-----|

G---------------|
D---------------|
A---------------| everytime after the first till the song it done
E-0000-00-------|
"            
Submit corrections

↑ Back to top | Tablatures and chords for acoustic guitar and electric guitar, ukulele, drums are parodies/interpretations of the original songs. You may use it for private study, scholarship, research or language learning purposes only