» » »

Thee Oh Sees - Turned Out Light Tabs

Artists:  A B C D E F G H I J K L M N O P Q R S T U V W X Y Z # 

Turned Out Light Tabs

(ver. 1) Click to play this song!
Thee Oh Sees
 Rating:
4.4/5 (5 votes)

 Turned Out Light lessons Tabs too difficult? Try these video lessons and learn fast
 
                [Intro]

Riff 1:
d|---------------------------------------------------------|
A|---------------------------------------------------------|
F|---------------------------------------------------------|
C|---------------------------------------------------------|
G|----------5-7-9b-9-7-9-7---------5-7-7-4-11-12-----------|
D|--0-0-5h7----------------0-0-5h7-------------------------| 2x

Riff 2:
d|---------------------------------------------------------|
B|---------------------------------------------------------|
G|-------------14b-14-12-14-12-----------------------------|
D|---------------------------------------------------------|
A|---------5-7-------------------------5-7-7-4-11-12-------|
D|-0-0-5h7---------------------0-0-5h7---------------------| 1x

Riff 1:
d|---------------------------------------------------------|
A|---------------------------------------------------------|
F|---------------------------------------------------------|
C|---------------------------------------------------------|
G|----------5-7-9b-9-7-9-7---------5-7-7-4-11-12-----------|
D|--0-0-5h7----------------0-0-5h7-------------------------| 1x

[Verse 1]

           Based on a feeling               Come on, Come on 
D|---------------------------------------------------------------------------|
A|---------------------------------------------------------------------------|
F|---------------------------------------------------------------------------|
C|---------------------------------------------------------------------------|
G|---------------------------------------------------------------------------|
D|-0-0-0-0-0-0-0-0-------------/10-10-10-10-10-10-10-10----------------------|

           Waste all your time now                 Ah, come on, turn on 
D|---------------------------------------------------------------------------|
A|---------------------------------------------------------------------------|
F|---------------------------------------------------------------------------|
C|---------------------------------------------------------------------------|
G|---------------------------------------------------------------------------|
D|-0-0-0-0-0-0-0-0--------------------/10-10-10-10-10-10-10-10---------------|

D|---------------------------------------------------------------------------|
A|---------------------------------------------------------------------------|
F|--9-9-7-7-6-6-5----9-9-7-7-6-6---------------------------------------------|
C|--9-9-7-7-6-6-5-5--9-9-7-7-6-6-5-7-----------------------------------------|
G|--7-7-5-5-4-4-3-5--7-7-5-5-4-4-5-7-----------------------------------------|
D|----------------3--------------3-5-----------------------------------------|


[Chorus]

Riff 1:
d|---------------------------------------------------------|
A|---------------------------------------------------------|
F|---------------------------------------------------------|
C|---------------------------------------------------------|
G|----------5-7-9b-9-7-9-7---------5-7-7-4-11-12-----------|
D|--0-0-5h7----------------0-0-5h7-------------------------| 1x

Riff 2:
d|---------------------------------------------------------|
B|---------------------------------------------------------|
G|-------------14b-14-12-14-12-----------------------------|
D|---------------------------------------------------------|
A|---------5-7-------------------------5-7-7-4-11-12-------|
D|-0-0-5h7---------------------0-0-5h7---------------------| 1x



[Verse 2]
          A creep without feeling                 Get out, get out
D|---------------------------------------------------------------------------|
A|---------------------------------------------------------------------------|
F|---------------------------------------------------------------------------|
C|---------------------------------------------------------------------------|
G|---------------------------------------------------------------------------|
D|-0-0-0-0-0-0-0-0-------------------/10-10-10-10-10-10-10-10----------------|

          Oh sugar, sugar, sugar                  Rather than doubt
D|---------------------------------------------------------------------------|
A|---------------------------------------------------------------------------|
F|---------------------------------------------------------------------------|
C|---------------------------------------------------------------------------|
G|---------------------------------------------------------------------------|
D|-0-0-0-0-0-0-0-0-------------------/10-10-10-10-10-10-10-10----------------|

          You hold up your hands now              Up to the sun
D|---------------------------------------------------------------------------|
A|---------------------------------------------------------------------------|
F|---------------------------------------------------------------------------|
C|---------------------------------------------------------------------------|
G|---------------------------------------------------------------------------|
D|-0-0-0-0-0-0-0-0-------------------/10-10-10-10-10-10-10-10----------------|

           A turned out light, yeah               Well it ain't no fun
D|---------------------------------------------------------------------------|
A|---------------------------------------------------------------------------|
F|---------------------------------------------------------------------------|
C|---------------------------------------------------------------------------|
G|---------------------------------------------------------------------------|
D|-0-0-0-0-0-0-0-0-------------------/10-10-10-10-10-10-10-10----------------|

[Bridge]

D|------------------------------------------------------|
A|------------------------------------------------------|
F|------------------------------------------------------|
C|------------------------------------------------------|
G|----------5-7-7-7-7-7----------5-7-7-7-7-7------------|
D|--0-0-5h7-----0-0-0-0--0-0-5h7-----0-0-0-0------------|

D|------------------------15------------------------15--|
A|--17-16-15-14--17-16-15-----17-16-15-14-17-16-15------|
F|------------------------------------------------------|
C|------------------------------------------------------|
G|------------------------------------------------------|
D|------------------------------------------------------|


[Outro]:

d|---------------------------------------------------------|
A|---------------------------------------------------------|
F|---------------------------------------------------------|
C|---------------------------------------------------------|
G|----------5-7-9b-9-7-9-7---------5-7-7-4-11--------------|
D|--0-0-5h7----------------0-0-5h7-------------------------|

            
Submit corrections


        Turned Out Light lessons Hard to play? Try these video lessons and learn fast Turned Out Light lessons
        
↑ Back to top | Tablatures and chords for acoustic guitar and electric guitar, ukulele, drums are parodies/interpretations of the original songs. You may use it for private study, scholarship, research or language learning purposes only