Home » T » The Downtown Fiction »

The Downtown Fiction - I Just Wanna Run Bass

Artists:  A B C D E F G H I J K L M N O P Q R S T U V W X Y Z # 

I Just Wanna Run Bass

(ver. 1) Click to play this song!
The Downtown Fiction
 Rating:
4.2/5 (5 votes)
                
ANY REQUESTS SEND TO MY EMAIL :)


Guitar and vocal intro


Intro
g-------|
d-------|
a-------|
e-2-2-2-|

'i just wanna run'
g-----------------------------------------|
d-----------------------------------------|
a-4-4-4-4-4-6-4-2-----------------2x8-----|
e-----------------0-0-0-0-0-2-4-0-----2x8-|

Verse
g-----------------------------------------------------|
d-----------------------------------------------------|
a-4-4-4--4-4-4--------------2-2-2--2-2----------------|
e--------------0-0-0--0-0-0------------0-2-2-2--2-2-0-| x3

g-------------------------------------|
d-------------------------------------|
a-4-4-4--4-4-4--------------2x8-------|
e--------------0-0-0--0-0-0-----2-2-2-|

Chorus
g-----------------------------------------|
d-----------------------------------------|
a-4-4-4-4-4-6-4-2-----------------2x8-----|
e-----------------0-0-0-0-0-2-4-0-----2x8-| x2

g-----------|
d-----------|
a-0x16------|
e------2x16-|

Verse
g-----------------------------------------------------|
d-----------------------------------------------------|
a-4-4-4--4-4-4--------------2-2-2--2-2----------------|
e--------------0-0-0--0-0-0------------0-2-2-2--2-2-0-|

g-------PAUSE------------------------------------------|
d-------PAUSE------------------------------------------|
a-4-4-4-PAUSE----------------2-2-2--2-2-2--------------|
e-------PAUSE-9\0-0-0--0-0-0--------------2-2-2--2-2-0-|

g-----------------------------------------------------|
d-----------------------------------------------------|
a-4-4-4--4-4-4--------------2-2-2--2-2----------------|
e--------------0-0-0--0-0-0------------0-2-2-2--2-2-0-|

g-------------------|
d-------------------|
a-4x8-----2x8-------|
e-----0x8-----2-2-2-|

Chorus
g-----------------------------------------|
d-----------------------------------------|
a-4-4-4-4-4-6-4-2-----------------2x8-----|
e-----------------0-0-0-0-0-2-4-0-----2x8-| x2

g-----------|
d-----------|
a-0x16------|
e------2x16-|

Guitar solo
g-----------------------------------------|
d-----------------------------------------|
a-4-4-4-4-4-6-4-2-----------------2x8-----|
e-----------------0-0-0-0-0-2-4-0-----2x8-|

g---------------------------------------|
d---------------------------------------|
a-4-4-4-4-4-6-4-2-----------------2x8---|
e-----------------0-0-0-0-0-2-4-0-----2-|

guitar and vocals

build up
g-----------------------------------------------------|
d-----------------------------------------------------|
a-4-4-4--4-4-4--------------2-2-2--2-2----------------|
e--------------0-0-0--0-0-0------------0-2-2-2--2-2-0-|

g----------------------------------------------|
d----------------------------------------------|
a-4-4-4--4-4-4--------------2-2-2--2-2---------|
e--------------0-0-0--0-0-0------------0-2-2-2-|

PAUSE

Outro
g-----------------------------------------|
d-----------------------------------------|
a-4-4-4-4-4-6-4-2-----------------2x8-----|
e-----------------0-0-0-0-0-2-4-0-----2x8-| x4

g-------|
d-------|
a-------|
e--9-9\-|


ENJOY :)
            
Submit corrections

↑ Back to top | Tablatures and chords for acoustic guitar and electric guitar, ukulele, drums are parodies/interpretations of the original songs. You may use it for private study, scholarship, research or language learning purposes only