Home » T » The Divine Comedy »

The Divine Comedy - The Wreck Of The Beautiful Tabs

Artists:  A B C D E F G H I J K L M N O P Q R S T U V W X Y Z # 

The Wreck Of The Beautiful Tabs

(ver. 1) Click to play this song!
The Divine Comedy


[Verse]

                                 *xylophone plays note F at the same time
e|-----------------|-----------------|------------------|----------0-------|
B|-----5---4-------|-----4---2-------|-----4----2-------|-----2------2-----|
G|-----------------|---2-------2---2-|---2--------2---2-|--------------3---|
D|---6---6---6---6-|-------------2---|--------------2---|---4---4--------4-|
A|-3-----------3---|-4-----4---------|-0-----0----------|-1----------------|
E|-----------------|-----------------|------------------|------------------|
   
e|-----------------|-----------------|
B|-----5---4-------|-----2---4-------|
G|-----------------|-----------------|x3
D|---4--4---4----4-|---4---4---4---4-|
A|-2-----------2---|-2-----------2---|
E|-----------------|-----------------|
   
E|------------------|------------------|-------------------|-------------------|
B|------5---4-------|------4----2------|------4----2-------|------2-------2----|
G|----------------6-|----2-------2---2-|----2--------2---2-|-------------------|
D|----6---6--6------|------------------|---------------2---|----4---4---4--4---|
A|--3-----------3---|--4-----4-----2---|--0-----0----------|--1-------0--------|
E|------------------|------------------|-------------------|-------------------|

e|------------------|------------------|------------------|
B|------0------0----|----2-----2-----2-|----2-------------|
G|------------------|------4-----4-----|---3--------------|
D|----2--2---2----2-|--------2-----2---|--2---------------|
A|------------------|------------------|------------------|
E|--4-------3-------|--2---------------|-2----------------|
 

[Chorus]

*There is no guitar in first chorus

   F#m         Am         G#m        Hm          F#m      Am         
e|-----------|----------|----------|-----------|--------|---------|
B|-2---------|-1--------|-4--------|--3--------|-2------|-5-------|
G|-2---------|-2--------|-4--------|--4--------|-2------|-5-------|
D|-4---------|-2--------|-6--------|--4--------|-4------|-7-------|
A|-4---------|-0--------|-6--------|--2--------|-4------|-7-------|
E|-2---------|----------|-4--------|-------5-4-|-2---4--|-5----7--|
 

[Chorus coda]

  Am6      E        Am6      Emaj7
e|--5------|-4-----|------|-4-----|
B|--7------|-5-----|-7----|-4-----|
G|--5------|-4-----|-5----|-4-----|
D|--7------|-5-----|-7----|-6-----|X2
A|---------|-------|------|-7-----|
E|---------|-------|------|-------|


[Verse]
                                  
e|-----------------|-----------------|------------------|----------0-------|
B|-----5---4-------|-----4---2-------|-----4----2-------|-----2------2-----|
G|-----------------|---2-------2---2-|---2--------2---2-|--------------3---|
D|---6---6---6---6-|-------------2---|--------------2---|---4---4--------4-|
A|-3-----------3---|-4-----4---------|-0-----0----------|-1----------------|
E|-----------------|-----------------|------------------|------------------|
   
e|-----------------|-----------------|
B|-----5---4-------|-----2---4-------|
G|-----------------|-----------------|x3
D|---4--4---4----4-|---4---4---4---4-|
A|-2-----------2---|-2-----------2---|
E|-----------------|-----------------|
   
E|------------------|------------------|-------------------|-------------------|
B|------5---4-------|------4----2------|------4----2-------|------2-------2----|
G|----------------6-|----2-------2---2-|----2--------2---2-|-------------------|
D|----6---6--6------|------------------|---------------2---|----4---4---4--4---|
A|--3-----------3---|--4-----4-----2---|--0-----0----------|--1-------0--------|
E|------------------|------------------|-------------------|-------------------|

e|------------------|------------------|------------------|
B|------0------0----|----2-----2-----2-|----2-------------|
G|------------------|------4-----4-----|---3--------------|
D|----2--2---2----2-|--------2-----2---|--2---------------|
A|------------------|------------------|------------------|
E|--4-------3-------|--2---------------|-2----------------|
 

[Chorus]

 guitar rhythm

   F#m         Am         G#m        Hm          F#m      Am          
e|-2---------|-5--------|-4--------|--7--------|-2------|-5-------|
B|-2---------|-5--------|-4--------|--7--------|-2------|-5----5--|
G|-2---------|-5--------|-4--------|--7--------|-2------|-5----5--|
D|-4---------|-7--------|-6--------|--9--------|-4------|-7-------|
A|-4---------|-7--------|-6--------|--9--------|-4------|-7-------|
E|-2---------|-5--------|-4--------|--7--------|-2---4--|-5----8--|
 

[Chorus coda]

  Am6      Emaj7      Am6      Emaj7
e|--0------|-0-----|-0----|-0-----|
B|--7------|-0-----|-7----|-2-----|
G|--5------|-1-----|-5----|-1-----|
D|--7------|-1-----|-7----|-2-----|X2
A|---------|-2-----|------|-------|
E|---------|-------|------|-0-----|


[Outro]

  guitar rhythm

e|-0-------------------------------------------------------------------------|
B|-2-------------------------------------------------------------------------|
G|-1-------------------------------------------------------------------------|
D|-2-------------------------------------------------------------------------|
A|---------------------------------------------------------------------------|
E|-0-------------------------------------------------------------------------|            
Submit corrections

↑ Back to top | Tablatures and chords for acoustic guitar and electric guitar, ukulele, drums are parodies/interpretations of the original songs. You may use it for private study, scholarship, research or language learning purposes only