Home » T » The Divine Comedy »

The Divine Comedy - Catherine The Great Tabs

Artists:  A B C D E F G H I J K L M N O P Q R S T U V W X Y Z # 

Catherine The Great Tabs

(ver. 1) Click to play this song!
The Divine Comedy
[Solo]
starts at 2.19 after "Yekaterina Alekseyevna"
e|-----------------------------------------------0-0-0-------0-------------------0-0-0--2-2-2--5-5-5-|
B|---0-0-0-------0-------------------0-0-0--1-1-1-------1--3---3--1--1-1-1--3-3-3--------------------|
G|-0-------0--2----2--0--0-0-0--2-2-2----------------------------------------------------------------|
D|---------------------------------------------------------------------------------------------------|
A|---------------------------------------------------------------------------------------------------|
E|---------------------------------------------------------------------------------------------------|
  G          G/F#    Em                     Am           C/G     D7/F#                  Hm

e|-2--3--5--3--2--5-5-5--2--0--2--0--5-5-5-----------------------------------|
B|----------------------------------3-------3--2--3--2--0--3-3-3---0---0-----|
G|-------------------------------------------------------------------2---2---|
D|---------------------------------------------------------------------------|
A|---------------------------------------------------------------------------|
E|---------------------------------------------------------------------------|
      A        D         A         Hm          A        G           D7/F#            
Submit corrections

↑ Back to top | Tablatures and chords for acoustic guitar and electric guitar, ukulele, drums are parodies/interpretations of the original songs. You may use it for private study, scholarship, research or language learning purposes only