» » »

The Dear Hunter - The Most Cursed Of Hands Tabs

Artists:  A B C D E F G H I J K L M N O P Q R S T U V W X Y Z # 

The Most Cursed Of Hands Tabs

(ver. 1) Click to play this song!
The Dear Hunter
 Rating:
4.3/5 (24 votes)

 The Most Cursed Of Hands  lessons Tabs too difficult? Try these video lessons and learn fast
 
                Verse 1

"The devil went down to the river..."

e|---------------------------------------------------------------------------|
B|---------------------------------------------------------------------------|
G|---------------------------------------------------------------------------|
D|---0---0---0---0---0---0---0---0---0---0---0---0---0---0-------------------|
A|---------------------------------------------------------------------------|
D|-0---0---0---0---0---0---0---0---0---0---0---0---0---0---------------------|


"Came to fall..."

e|---------------------------------------------------------------------------|
B|---------------------------------------------------------------------------|
G|---------------------------------------------------------------------------|
D|----0---0-----0---0-----------0------------0-----0----0---0----------------|
A|-----------0---------3-2-0-------------------------------------------------|
D|3h5---3---------5-----------5----3h5p3--0------0---0----0------------------|


"While the gambler's stacks..."

e|---------------------------------------------------------------------------|
B|---------------------------------------------------------------------------|
G|---------------------------------------------------------------------------|
D|---0---0---0---0---0---0---0---0---0---0-----------------------------------|
A|---------------------------------------------------------------------------|
D|-0---0---0---0---0---0---0---0---0---0-------------------------------------|


"He lost his sight..."


e|---------------------------------------------------------------------------|
B|---------------------------------------------------------------------------|
G|---------------------------------------------------------------------------|
D|----0---0-----0---0-----------0------------0---0---0---0---0---0---0---0---|
A|-----------0---------3-2-0-------------------------------------------------|
D|3h5---3---------5-----------5----3h5p3--0---0---0---0---0---0---0---0------|



Chorus

"Damned across..."

e|---------------------------------------------------------------------------|
B|---------------------------------------------------------------------------|
G|---------------------------------------------------------------------------|
D|-5--3------7--5-----5--3--7--5----0----------------------------------------|
A|-5--3------7--5-----5--3--7--5----0----------------------------------------|
D|-5--3------7--5-----5--3--7--5----0----------------------------------------|


e|---------------------------------------------------------------------------|
B|---------------------------------------------------------------------------|
G|---------------------------------------------------------------------------|
D|---0---0---0---0---0---0---0---0---0---0---0---0---0---0---0---0-----------|
A|---------------------------------------------------------------------------|
D|-0---0---0---0---0---0---0---0---0---0---0---0---0---0---0---0-------------|



Verse 2

Main Electric Riff

e|-----------------------------------------------------------|
B|-----------------------------------------------------------|
G|-----------------------------------------------------------|
D|----0------------------------------------------------------|  X2
A|---------2-0-3----------0----------------------------------|
D|--0---0--------0--5-3h5----5p3p0--5-5p3p0------------------|

"With the gambler's glory delivered..."

e|---------------------------------------------------------------------------|
B|---------------------------------------------------------------------------|
G|---------------------------------------------------------------------------|
D|---0---0---0---0---0---0------0---0-----0---0-----------0------------------|
A|-------------------------------------0---------3-2-0-----------------------|
D|-0---0---0---0---0---0----3h5---5---------5----------5----3h5p3--0---------|


"And the Devil's wealth..."

e|---------------------------------------------------------------------------|
B|---------------------------------------------------------------------------|
G|---------------------------------------------------------------------------|
D|---0---0---0---0---0---0---0---0---0---0---0---0---0---0-------------------|
A|---------------------------------------------------------------------------|
D|-0---0---0---0---0---0---0---0---0---0---0---0---0---0---------------------|


"so with cunning class..."

e|---------------------------------------------------------------------------|
B|---------------------------------------------------------------------------|
G|---------------------------------------------------------------------------|
D|----0---0-----0---0-----------0-----------0---0---0---0---0---0---0---0----|
A|-----------0---------3-2-0-------------------------------------------------|
D|3h5---3---------5-----------5----3h5p3--0---0---0---0---0---0---0---0------|




Chorus 

"The gambler called..."


e|-----------------------------------------------|
B|-----------------------------------------------|
G|-----------------------------------------------|
D|-5--3------7--5-----5--3--7--5----0------------|  X2
A|-5--3------7--5-----5--3--7--5----0------------|
D|-5--3------7--5-----5--3--7--5----0------------|


Bridge 


e|---------------------------------------------------------------------------|
B|---------------------------------------------------------------------------|
G|---------------------------------------------------------------------------|
D|---0---0---0---0---0---0---0---0---0---0---0---0---0---0---0---0-----------|
A|---------------------------------------------------------------------------|
D|-0---0---0---0---0---0---0---0---0---0---0---0---0---0---0---0-------------|


e|-----------------------------------------------|
B|-----------------------------------------------|
G|-----------------------------------------------|
D|-3-3-3-3-3-3-3-3-3-3-3-3-3-3-3-3---------------|
A|-3-3-3-3-3-3-3-3-3-3-3-3-3-3-3-3---------------|
D|-3-3-3-3-3-3-3-3-3-3-3-3-3-3-3-3---------------|

e|---------------------------------------------------------------------------|
B|---------------------------------------------------------------------------|
G|---------------------------------------------------------------------------|
D|---0---0---0---0---0---0---0---0---0---0---0---0---0---0---0---0-----------|
A|---------------------------------------------------------------------------|
D|-0---0---0---0---0---0---0---0---8---8---8---8---8---8---8---8-------------|


e|---------------------------------------------------------------------------|
B|---------------------------------------------------------------------------|
G|---------------------------------------------------------------------------|
D|---0---0---0---0---0---0---0---0-------------------------------------------|
A|---------------------------------------------------------------------------|
D|-0---0---0---0---0---0---0---0---------------------------------------------|

e|-----------------------------------------------|
B|-----------------------------------------------|
G|-----------------------------------------------|
D|-3-3-3-3-3-3-3-3-3-3-3-3-3-3-3-3---------------|
A|-3-3-3-3-3-3-3-3-3-3-3-3-3-3-3-3---------------|
D|-3-3-3-3-3-3-3-3-3-3-3-3-3-3-3-3---------------|

e|---------------------------------------------------------------------------|
B|---------------------------------------------------------------------------|
G|---------------------------------------------------------------------------|
D|---0---0---0---0---0---0---0---0---0---0---0---0---0---0---0---------------|
A|---------------------------------------------------------------------------|
D|-0---0---0---0---0---0---0---0---8---8---8---8---8---8---8-----------------|

e|-----------------------------------------------------------|
B|-----------------------------------------------------------|
G|-----------------------------------------------------------|
D|----0------------------------------------------------------|  X4
A|---------2-0-3----------0----------------------------------|
D|--0---0--------0--5-3h5----5p3p0--5-5p3p0------------------|



Verse 3

"The Devil said revel..."

e|-----------------------------------------------|
B|-----------------------------------------------|
G|-----------------------------------------------|
D|-3-3-3-3-3-3-3-3-3-3-3-3-3-3-3-3---------------|
A|-3-3-3-3-3-3-3-3-3-3-3-3-3-3-3-3---------------|
D|-3-3-3-3-3-3-3-3-3-3-3-3-3-3-3-3---------------|


e|-----------------------------------------------------------|
B|-----------------------------------------------------------|
G|-----------------------------------------------------------|
D|----0------------------------------------------------------|
A|---------2-0-3----------0----------------------------------|
D|--0---0--------0--5-3h5----5p3p0--5-5p3p0------------------|


"But the gambler only stood..."

e|-----------------------------------------------|
B|-----------------------------------------------|
G|-----------------------------------------------|
D|-8-8-8-8-8-8-8-8-8-8-8-8-8-8-8-8---------------|
A|-8-8-8-8-8-8-8-8-8-8-8-8-8-8-8-8---------------|
D|-8-8-8-8-8-8-8-8-8-8-8-8-8-8-8-8---------------|


e|-----------------------------------------------------------|
B|-----------------------------------------------------------|
G|-----------------------------------------------------------|
D|----0------------------------------------------------------|
A|---------2-0-3----------0----------------------------------|
D|--0---0--------0--5-3h5----5p3p0--5-5p3p0------------------|

"Now you won a new..."

e|-----------------------------------------------|
B|-----------------------------------------------|
G|-----------------------------------------------|
D|-3-3-3-3-3-3-3-3-3-3-3-3-3-3-3-3---------------|
A|-3-3-3-3-3-3-3-3-3-3-3-3-3-3-3-3---------------|
D|-3-3-3-3-3-3-3-3-3-3-3-3-3-3-3-3---------------|


He Said He Had a Story riff reprise

e|--------------------------|
B|--------------------------|
G|--------------------------|
D|----3-2-3-2-0---2---0-----| X2
A|------------------4-------|
D|--0-----------------------|


"And then the gambler saw..."

e|------------------------------------------------|
B|------------------------------------------------|
G|------------------------------------------------|
D|-8-8-8-8-8-8-8-8-8-8-8-8-8-8-8-8-----------0----|
A|-8-8-8-8-8-8-8-8-8-8-8-8-8-8-8-8-----------0----|
D|-8-8-8-8-8-8-8-8-8-8-8-8-8-8-8-8-----------0----|


Outlook

"Damned across..."


e|------------------------------------------|
B|------------------------------------------|
G|------------------------------------------|
D|-5--3------7--5-----5--3--7--5------------|
A|-5--3------7--5-----5--3--7--5------------|
D|-5--3------7--5-----5--3--7--5------------|            
Submit corrections


        The Most Cursed Of Hands  lessons Hard to play? Try these video lessons and learn fast The Most Cursed Of Hands  lessons
        
↑ Back to top | Tablatures and chords for acoustic guitar and electric guitar, ukulele, drums are parodies/interpretations of the original songs. You may use it for private study, scholarship, research or language learning purposes only