» » »

The Dear Hunter - Light Tabs

Artists:  A B C D E F G H I J K L M N O P Q R S T U V W X Y Z # 

Light Tabs

(ver. 1) Click to play this song!
The Dear Hunter
 Rating:
4.3/5 (25 votes)

 Light  lessons Tabs too difficult? Try these video lessons and learn fast
 
                'Intro' from The Haves have Naught:
                x2              x2
e|--------------|--------------|
B|--------------|--------------|
G|-1--------1---|-2--------2---| x2
D|------0-------|------0-------|
A|--------------|--------------|
D|-3--3---3---3-|-0--0---0---0-|

                x2                                            x2              x3
e|--------------|----------------------------|--------------|--------------|-0----|
B|--------------|----------------------------|--------------|-2--------2---|-2----|
G|-1--------1---|-2--------2----2--------2---|-3--------3---|------0-------|-0----|
D|------0-------|------0-------------0-------|------0-------|--------------|-2----|
A|--------------|----------------------------|--------------|-0--0---0---0-|-0----|
D|-3--3---3---3-|-0--0---0---0--3--3---3---3-|-5--5---5---5-|--------------|------|


[Verse 1] - Repeat twice
e|---------------------------------|------------------------------------|
B|---------------------------------|------------------------------------|
G|-----------2---0-----------------|-----0---------0-------0-------0----|
D|-2h4---------------4---2---0-----|-----------2-------2-------2--------|
A|-------0-----------------------0-|-----2-------2-------2-------2------|
D|-0---0---0---0---0---0---0---0---|-2-------2-------2-------2----------|

e|--------------------------------------------------------------------|
B|--------------------------------------------------------------------|
G|----4-----2---------------------------0-----------------------------|
D|--------------4--------2---0-----------------4---0-------0----------|
A|----5-------------0------------0---------------------0-------0------|
D|-5----------0---0---0----0---0---2--2-----2----2---0---0---0---0----|



[Chorus 1]
e|--------------------------------|--------------------------------|
B|-2--------2-------2-------2-----|----0-------0-------0------0----|
G|------0-------0-------0-------0-|--------0--------------0--------|
D|----2-------2-------2-------2---|----2-----2-----2--------2------|
A|-0------0-------0-------0-------|------------------2-------------|
D|--------------------------------|-2----2-------2-----------------|

e|---------------|----------------|-------------------------------|
B|----1--------1-|-------2------2-|----3--------3-------3---------|
G|---------0-----|---0------0-----|---------2-------2------2------|
D|----2------2---|-----2------2---|----0------0-------0------0----|
A|-3-----3-------|-0--------------|-------------------------------|
D|---------------|----------------|-0-----0-------0---------------|

e|--------------------------------|-------------------------------|
B|-2--------2-------2-------2-----|----0-------0-------0----------|
G|------0-------0-------0-------0-|--------0--------------0-------|
D|----2-------2-------2-------2---|----2-----2-----2--------2-----|
A|-0------0-------0-------0-------|------------------2------------|
D|--------------------------------|-2----2-------2----------------|

e|---------------------------------------------------------------------|
B|---------------------------------------------------------------------|
G|-4--------4---3--------3---2-----------------------------------------|
D|----------------------------------4--2-2----2p0-0-------0-------0----|
A|------5------------5------------5---------------------0----0---------|
D|-5--5---5---5-5--5---5---5-0--0--------2--2--------0---------0-------|


[Post Chorus]
e|------------------------------------------------------------------|
B|------------------------------------------------------------------|
G|-----------2---0-------------------------2---0--------------------|
D|-2h4---------------4---2---0--------0------------4---2---0--------|
A|-------0-----------------------0-----------------------------0----|
D|-0---0---0---0---0---0---0---0---0--0--0---0---0---0---0---0------|

e|-----------------------------------------------------------------------|
B|-----------------------------------------------------------------------|
G|-----0---------0-------0-------0-----0---------0-------0-------0-------|
D|-----------2-------2-------2---------------2-------2-------2-----------|
A|-----2-------2-------2-------2-------2-------2-------2-------2---------|
D|-2-------2-------2-------2-------2-------2-------2-------2-------------|


[Verse 2] - Repeat twice
e|---------------------------------|------------------------------------|
B|---------------------------------|------------------------------------|
G|-----------2---0-----------------|-----0---------0-------0-------0----|
D|-2h4---------------4---2---0-----|-----------2-------2-------2--------|
A|-------0-----------------------0-|-----2-------2-------2-------2------|
D|-0---0---0---0---0---0---0---0---|-2-------2-------2-------2----------|

e|--------------------------------------------------------------------|
B|--------------------------------------------------------------------|
G|----4-----2---------------------------0-----------------------------|
D|--------------4--------2---0-----------------4---0-------0----------|
A|----5-------------0------------0---------------------0-------0------|
D|-5----------0---0---0----0---0---2--2-----2----2---0---0---0---0----|


[Chorus 2]
e|--------------------------------|--------------------------------|
B|-2--------2-------2-------2-----|----0-------0-------0------0----|
G|------0-------0-------0-------0-|--------0--------------0--------|
D|----2-------2-------2-------2---|----2-----2-----2--------2------|
A|-0------0-------0-------0-------|------------------2-------------|
D|--------------------------------|-2----2-------2-----------------|

e|---------------|----------------|-------------------------------|
B|----1--------1-|-------2------2-|----3--------3-------3---------|
G|---------0-----|---0------0-----|---------2-------2------2------|
D|----2------2---|-----2------2---|----0------0-------0------0----|
A|-3-----3-------|-0--------------|-------------------------------|
D|---------------|----------------|-0-----0-------0---------------|

e|--------------------------------|-------------------------------|
B|-2--------2-------2-------2-----|----0-------0-------0----------|
G|------0-------0-------0-------0-|--------0--------------0-------|
D|----2-------2-------2-------2---|----2-----2-----2--------2-----|
A|-0------0-------0-------0-------|------------------2------------|
D|--------------------------------|-2----2-------2----------------|

e|---------------------------------------------------------------------|
B|---------------------------------------------------------------------|
G|-4--------4---3--------3---2-----------------------------------------|
D|----------------------------------4--2---0---2---0---2---0---2p0-0---|
A|------5------------5------------5------------------------------------|
D|-5--5---5---5-5--5---5---5-0--0--------2---2---2---2---2---2---------|

e|------------------------------------|
B|------------------------------------|
G|-------2-------2-------2-------2----|
D|---0-------0-------0-------0--------|
A|-----0-------0-------0-------0------|
D|-0-------0-------0-------0----------|


[Bridge] - Repeat each bar four times
e|--------------|--------------|--------------|-----------------|
B|-1--------1---|-3--------3---|-0--------0---|-3--------3------|
G|------0-------|------2-------|------0-------|------2----------|
D|----2-------2-|----0-------0-|----2-------2-|----0-------0----|
A|-0------0-----|-1------1-----|--------------|--------0--------|
E|--------------|--------------|-2------2-----|-0---------------|

e|--------------|--------------|--------------|-----------------|
B|-1--------1---|-3--------3---|-0--------0---|-2--------2------|
G|------0-------|------2-------|------0-------|------0----------|
D|----2-------2-|----0-------0-|----2-------2-|----2-------2----|
A|-0------0-----|-1------1-----|--------------|-0------0--------|
E|--------------|--------------|-2------2-----|-----------------|

[Post-Chorus (or post-bridge?)] - Repeat twice
e|------------------------------------------------------------------|
B|------------------------------------------------------------------|
G|-----------2---0-------------------------2---0--------------------|
D|-2h4---------------4---2---0--------0------------4---2---0--------|
A|-------0-----------------------0-----------------------------0----|
D|-0---0---0---0---0---0---0---0---0--0--0---0---0---0---0---0------|

e|-----------------------------------------------------------------------|
B|-----------------------------------------------------------------------|
G|-----0---------0-------0-------0-----0---------0-------0-------0-------|
D|-----------2-------2-------2---------------2-------2-------2-----------|
A|-----2-------2-------2-------2-------2-------2-------2-------2---------|
D|-2-------2-------2-------2-------2-------2-------2-------2-------------|


[Chorus 3]
e|--------------------------------|--------------------------------|
B|-2--------2-------2-------2-----|----0-------0-------0------0----|
G|------0-------0-------0-------0-|--------0--------------0--------|
D|----2-------2-------2-------2---|----2-----2-----2--------2------|
A|-0------0-------0-------0-------|------------------2-------------|
D|--------------------------------|-2----2-------2-----------------|

e|---------------|----------------|-------------------------------|
B|----1--------1-|-------2------2-|----3--------3-------3---------|
G|---------0-----|---0------0-----|---------2-------2------2------|
D|----2------2---|-----2------2---|----0------0-------0------0----|
A|-3-----3-------|-0--------------|-------------------------------|
D|---------------|----------------|-0-----0-------0---------------|

e|--------------------------------|-------------------------------|
B|-2--------2-------2-------2-----|----0-------0-------0----------|
G|------0-------0-------0-------0-|--------0--------------0-------|
D|----2-------2-------2-------2---|----2-----2-----2--------2-----|
A|-0------0-------0-------0-------|------------------2------------|
D|--------------------------------|-2----2-------2----------------|

                                                                      x2
e|---------------------------------------|-------------------------|---------------|
B|---------------------------------------|-------------------------|---------------|
G|-4--------4---3--------3---2-----------|-------------------------|---------------|
D|----------------------------------4--2-|---0---2---0---2---0---2-|---0---2p0-0---|
A|------5------------5------------5------|-------------------------|---------------|
D|-5--5---5---5-5--5---5---5-0--0--------|-2---2---2---2---2---2---|-2---2---------|

                                                                      x3
e|---------------------------------|-------------------------------|------|
B|---------------------------------|-------------------------------|-3----|
G|-----------2---0-----------------|---------2---0-----------------|-2----|
D|-2h4---------------4---2---0-----|----0------------4---2---0-----|-0----|
A|-------0-----------------------0-|-----------------------------0-|-0----|
D|-0---0---0---0---0---0---0---0---|-0--0--0---0---0---0---0---0---|-0----|            
Submit corrections


        Light  lessons Hard to play? Try these video lessons and learn fast Light  lessons
        
↑ Back to top | Tablatures and chords for acoustic guitar and electric guitar, ukulele, drums are parodies/interpretations of the original songs. You may use it for private study, scholarship, research or language learning purposes only