» » »

The Dear Hunter - Blame Paradise Bass

Artists:  A B C D E F G H I J K L M N O P Q R S T U V W X Y Z # 

Blame Paradise Bass

(ver. 1) Click to play this song!
The Dear Hunter
 Rating:
4.3/5 (9 votes)

 Blame Paradise lessons Tabs too difficult? Try these video lessons and learn fast
 
                [0:11] - Intro
G|---------------------------------------------------|
D|---------------------------------------------------|
A|-------5-4---------------4-------------------------|
E|-4-4-4-----7-5-4-5-5---7----3-3-3--3-3--3--3-3-3-3-|
B|---------------------------------------------------|

G|---------------------------------------------------|
D|---------------------------------------------------|
A|-------5-4---------------4-------------------------|
E|-4---------7-5-4-5-5---7----3-3-3--3-3--3--3-3-3-3-|
B|---------------------------------------------------|

[0:24] - Verse 1
G||-----------------------------------------------------------------||
D||-----------------------------------------------------------------||
A||-------5-4---------------4-4-------------------------------------|| x2
E||-4-4-4-----7-5-4-5-5-5-7-----4-4-3-3-3-3-3-3-3-3-3-3-3-3-3-3-3-3-||
B||-----------------------------------------------------------------||

G|-------------------------------------------------------------|
D|-------5-4-2-----------2-4-4---------------------------------|
A|-2-2-2-------5-4-5-5-5-------1-1-1-1-1-1-1-1-1-1-1-1---------|
E|-----------------------------------------------------3-3-3-3-|
B|-------------------------------------------------------------|

G|---------------------------------------------------------|
D|---------------------------------------------------------|
A|---------------------------------------------------------|
E|-4-4-4-4-----------------3-3-3-3-4-4-4-4-4-4-4-4-6-6-6-6-|
B|---------4-4-4-4-5-5-5-5---------------------------------|

[0:50] - Chorus 1
G|-----------------------------------------------------------------|
D|-----------------------------------------------------------------|
A|-----------------------------------------------------------------|
E|-7-7-7-7-7-7-7-7-7-7-7-7-3-3-3-3-4-4-4-4-4-4-4-4-4-4-4-4---------|
B|---------------------------------------------------------4-4-4-4-|

G|---------------------------------|
D|---------------------------------|
A|---------------------------------|
E|-0-0-0-0-3-3-3-3-4-4-4-4-6-6-6-6-|
B|---------------------------------|

G|-----------------------------------------------------------------|
D|-----------------------------------------------------------------|
A|-----------------------------------------------------------------|
E|-7-7-7-7-7-7-7-7-7-7-7-7-5-5-5-5-----------------3-3-3-3-3-3-3-3-|
B|---------------------------------3-3-3-3-3-3-3-3-----------------|

G|-----------------|---------|
D|-----------------|---------|
A|-----------------|---------|
E|-4-4-4-4-4-4-4-4-|-4-4-4-4-|
B|-----------------|---------|

[1:11] - Verse 2
G||-----------------------------------------------------------------|
D||-----------------------------------------------------------------|
A||-------------------7-7-7-7-6-4-6-6-6-6-6-------------------------|
E||-7-7-4-4-4-4-4-4-4-----------------------4-4-7-7-6-6-6-6-4-4-4-4-|
B||-----------------------------------------------------------------|

G|-------------------------------------------------||
D|-------------------------------------------------||
A|-------------------5-5-5-5-5-5-6-6-6-6-6---------||
E|-3-3-3-3-3-3-3-3-3-----------------------6-6-6-6-|| x2
B|-------------------------------------------------||

G|---------------------------------|
D|---------------------------------|
A|-------7-6-4---------------------|
E|-3-3-3-------7-6-4-4-4---6-6-6-6-|
B|-----------------------3---------|

[1:38] - Chorus 2
G|-----------------------------------------------------------------|
D|-----------------------------------------------------------------|
A|-----------------------------------------------------------------|
E|-7-7-7-7-7-7-7-7-7-7-7-7-3-3-3-3-4-4-4-4-4-4-4-4-4-4-4-4---------|
B|---------------------------------------------------------4-4-4-4-|

G|---------------------------------|
D|---------------------------------|
A|---------------------------------|
E|-0-0-0-0-3-3-3-3-4-4-4-4-6-6-6-6-|
B|---------------------------------|

G|-----------------------------------------------------------------|
D|-----------------------------------------------------------------|
A|-----------------------------------------------------------------|
E|-7-7-7-7-7-7-7-7-7-7-7-7-5-5-5-5-----------------3-3-3-3-3-3-3-3-|
B|---------------------------------3-3-3-3-3-3-3-3-----------------|

G|--------------------------|
D|--------------------------|
A|--------------------------|
E|-4-4-4--4-4---4---4-4-4-4-|
B|--------------------------|

[1:59] - Bridge
Not sure if it’s a bass or the synth since it’s so low, 
but there is something alternating between G and G# (3rd and 4th fret on E string)

[2:52] - Chorus 3
G|-----------|
D|-----------|
A|-----------|
E|-3-3-3-3-3-|
B|-----------|

G||-----------------------------------------------------------------|
D||-----------------------------------------------------------------|
A||-----------------------------------------------------------------|
E||-7-7-7-7-7-7-7-7-7-7-7-7-3-3-3-3-4-4-4-4-4-4-4-4-4-4-4-4---------|
B||---------------------------------------------------------4-4-4-4-|

G|---------------------------------||
D|---------------------------------||
A|---------------------------------||
E|-0-0-0-0-3-3-3-3-4-4-4-4-6-6-6-6-|| x2
B|---------------------------------||

G|---------------------------------------------------------------------------|
D|---------------------------------------------------------------------------|
A|---------------------------------------------------------------------------|
E|-7-7-7-7-7-7-7-7-7-7-7-7-5-5-5-5-----------------3-3-3-3-3-3-3-3-3-3-3-3-3-|
B|---------------------------------3-3-3-3-3-3-3-3---------------------------|            
Submit corrections


        Blame Paradise lessons Hard to play? Try these video lessons and learn fast Blame Paradise lessons
        
↑ Back to top | Tablatures and chords for acoustic guitar and electric guitar, ukulele, drums are parodies/interpretations of the original songs. You may use it for private study, scholarship, research or language learning purposes only