» » »

The Dear Hunter - A Sua Voz Bass

Artists:  A B C D E F G H I J K L M N O P Q R S T U V W X Y Z # 

A Sua Voz Bass

(ver. 1) Click to play this song!
The Dear Hunter
 Rating:
4.3/5 (16 votes)

 A Sua Voz lessons Tabs too difficult? Try these video lessons and learn fast
 
                [Intro]
G|----------------|------------------|
D|----------------|------------4--7--|
A|--------------2-|---2-4-5----------|
E|-0-2-4----4-5---|------------------|

[Pre-Verse]
G|-----------|------------|-----------|------------|
D|----9-9----|----9-9-----|----9-9----|---9-9------|
A|-7-------7-|-7-------7--|-7-------7-|-7-------7--|
E|-----------|------------|-----------|------------|

[Verse 1]
G||-----------|-------------|-----------|------------|------------||
D||----9-9----|----9-9------|----7-7----|----7-7-----|----5-5-----||
A||-7-------7-|-7-------7-6-|-5-------5-|-5-------5--|-3-------3--|| x2 - Endings below
E||-----------|-------------|-----------|------------|------------||

1.                  2.
G|-----------------|-----------|-----------------|
D|--------1--------|-----------|--------1--------|
A|-----------4--2--|-7--7-7--7-|-----------4--2--|
E|-0-2-4-----------|-----------|-0-2-4-----------|

[Chorus 1]
G|-----------|-----------|----4-4----|----4-4----|-----------|-----------|
D|----4-4----|----4-4----|-2-------2-|-2-------2-|----4-4----|----4-4----|
A|-2-------2-|-2-------2-|-----------|-----------|-2-------2-|-2-------2-|
E|-----------|-----------|-----------|-----------|-----------|-----------|

G|----7-7-----|------------|--------|--------|
D|-5-------5--|-10---------|--REST--|--REST--|
A|------------|-----8-8----|--------|--------|
E|------------|------------|--------|--------|

[Verse 2]
G||-----------|-------------|-----------|------------|------------||
D||----9-9----|----9-9------|----7-7----|----7-7-----|----5-5-----||
A||-7-------7-|-7-------7-6-|-5-------5-|-5-------5--|-3-------3--|| x2 - Endings below
E||-----------|-------------|-----------|------------|------------||

1.                  2.
G|-----------------|-----------|-----------------|
D|--------1--------|-----------|--------1--------|
A|-----------4--2--|-7--7-7--7-|-----------4--2--|
E|-0-2-4-----------|-----------|-0-2-4-----------|


[Chorus 2]
G||-----------|-----------|----4-4----|----4-4----|-----------|-----------|
D||----4-4----|----4-4----|-2-------2-|-2-------2-|----4-4----|----4-4----|
A||-2-------2-|-2-------2-|-----------|-----------|-2-------2-|-2-------2-|
E||-----------|-----------|-----------|-----------|-----------|-----------|

G|----7-7-----|------------||
D|-5-------5--|-10---------||
A|------------|-----8-8----|| x2 - Endings below
E|------------|------------||

1.                              2.
G|-----------|-----------------|----------------|------------------|
D|-----------|--------1--------|----------------|------------4--7--|
A|-7---7-7---|-----------4--2--|--------------2-|---2-4-5----------|
E|-----------|-0-2-4-----------|-0-2-4----4-5---|------------------|

[Guitar Solo]
G|-------------|-------------|-------------|-------------|-----------|-------------|
D|----9-9------|----9-9------|----7-7------|----7-7------|----5-5----|-------------|
A|-7---------9-|-7---------7-|-5---------7-|-5---------5-|-3-------3-|-------------|
E|---------7---|---------7---|---------5---|---------5---|-----------|-0-x-x-0-2-4-|

G|-------------|---------------|-------------|-------------|-----------|----------------|
D|----9-9------|----9-9-9------|----7-7------|----7-7------|----5-5----|--------1-------|
A|-7---------9-|-7-----------7-|-5---------7-|-5---------5-|-3-------3-|-----------4--2-|
E|---------7---|-----------7---|---------5---|---------5---|-----------|-0-2-4----------|

[Chorus 3]
G||-----------|-----------|----4-4----|----4-4----|-----------|-----------|
D||----4-4----|----4-4----|-2-------2-|-2-------2-|----4-4----|----4-4----|
A||-2-------2-|-2-------2-|-----------|-----------|-2-------2-|-2-------2-|
E||-----------|-----------|-----------|-----------|-----------|-----------|

G|----7-7-----|------------||
D|-5-------5--|-10---------||
A|------------|-----8-8----|| x2 - Song ends after second rep
E|------------|------------||

1.
G|-----------|-----------------|
D|-----------|--------1--------|
A|-7---7-7---|-----------4--2--|
E|-----------|-0-2-4-----------|            
Submit corrections


        A Sua Voz lessons Hard to play? Try these video lessons and learn fast A Sua Voz lessons
        
↑ Back to top | Tablatures and chords for acoustic guitar and electric guitar, ukulele, drums are parodies/interpretations of the original songs. You may use it for private study, scholarship, research or language learning purposes only