» » »

The Dear Hunter - All Is As All Should Be Bass

Artists:  A B C D E F G H I J K L M N O P Q R S T U V W X Y Z # 

All Is As All Should Be Bass

(ver. 1) Click to play this song!
The Dear Hunter
 Rating:
4.3/5 (24 votes)

 All Is As All Should Be lessons Tabs too difficult? Try these video lessons and learn fast
 
                [0:49] - Chorus 1
G|-----------------------------------------------------------------|
D|-----------------------------------------------------------------|
A|-----------------------------------------5-5-5-5-3-3-3-3-3-3-3-5-|
E|---------3-3-3-3-6-6-6-6---------3-3-3-3-------------------------|
B|-4-4-4-4-----------------4-4-4-4---------------------------------|

G|----------------------------------------------------------|
D|----------------------------------------------------------|
A|-6-6------------------------------------------------------|
E|---------3-3-3-3-6-6-6-6---------3-3-3-3-3-3-3-3-1--------|
B|-----4-4-----------------4-4-4-4--------------------------|

[1:19] - Pre Verse 1
G|--------------------------------|-------------------------------|
D|--------------------------------|---------------------3-3-3-3-3-|
A|--------5---3---------(1)/3-3-3-|--------5---3------------------|
E|-3-6-3----6---6-3---------------|-3-6-3----6---6-3--------------|
B|-------------------6------------|------------------6------------|

G|--------------------------------|-------------------------|
D|--------------------------------|---------------------3-3-|
A|--------5---3---------(1)/3-3-3-|--------5---3------------|
E|-3-6-3----6---6-3---------------|-3-6-3----6---6-3--------|
B|-------------------6------------|------------------6------|

[1:34] - Verse 1
G||------------------------2h3p0------------------------------||
D||------------------------------5-------------------5--------||
A||-------------------5------------5--------5----------5------||
E||-3----3-3-3-3----3---3------------3----3---3----3-----3--3-|| x2, endings below
B||-----------------------------------------------------------||

  1.                 2.
G|------------------|-----------------------|
D|------------------|-----------------------|
A|-3-3-3----3-------|----3-3-3-3----3-------|
E|------------1-1-1-|-3---------------1-1-1-|
B|------------------|-----------------------|

[2:08] - Chorus 2
G|-----------------------------------------------------------------------|
D|-----------------------------------------------------------------------|
A|-6-6-------------------------------------5-5-5-5-3-3-3-3---3-3-3---3h5-|
E|---------3-3-3-3-6-6-6-6---------3-3-3-3-----------------3-------3-----|
B|-----4-4-----------------4-4-4-4---------------------------------------|

G|-----------------------------------------------------------------|
D|-----------------------------------------------------------------|
A|-6-6-------------------------------------------------------------|
E|---------3-3-3-3-6-6-6-6---------3-3-3-3-3-3-3-3-1-1-1-1-1-1-1-1-|
B|-----4-4-----------------4-4-4-4---------------------------------|

[2:38] - Post chorus
G|-------------------------------------------------------------------|
D|-------------------------------------------------------------------|
A|------------------------------------5-3-5--5---5-5-4-4-4-4-4-4-4-4-|
E|-3-3-3-3-3-3-3-3-6-6-6-6-6-6-6-6-----------------------------------|
B|---------------------------------3-----------3---------------------|

G|-----------------------------------|
D|-----------------------------------|
A|-----------------------------------|
E|-1-1-1-1-1-1-1-1-0-0-0-0-0-0-0-0---|
B|---------------------------------2-|

[3:15] - Bridge
G||-------------------------------------------------||
D||-------------------------------------------------||
A||-------------------------------------------------|| 
E||-0-0-0-0-0-0-0-0-3-3-3-3-3-3-3-3-4-4-4-4-4-4-4-4-|| x2, speeding up
B||-------------------------------------------------||

G|---------------------------------|
D|---------------------------------|
A|---------------------------------|
E|-0-0-0-0-0-0-0-0-4-4-4-4-4-4-6-6-|
B|---------------------------------|

[3:48] - Chorus 3
                  x2  1.                2.
G||-----------------||-----------------|-----------------|
D||-----------------||-----------------|-----------------|
A||---------6-6-6-6-||-7-7-7-7-7-7-----|-----------------|
E||-7-7-7-7---------||-------------6-6-|-4-4-4-4-4-4-2-2-|
B||-----------------||-----------------|-----------------|

[4:20] - Outro
G|-----------------------------------------------------------------|
D|-----------------------------------------------------------------|
A|-----------------------------------------------------------------|
E|-4-4-4-4-4-4-4-4-4-4-4-4-4-4-4-4-4-4-4-4-4-4-4-4-4-4-4-4-4-4-4-4-|
B|-----------------------------------------------------------------|            
Submit corrections


        All Is As All Should Be lessons Hard to play? Try these video lessons and learn fast All Is As All Should Be lessons
        
↑ Back to top | Tablatures and chords for acoustic guitar and electric guitar, ukulele, drums are parodies/interpretations of the original songs. You may use it for private study, scholarship, research or language learning purposes only