Home » T » The Cab »

The Cab - Intoxicated Tabs

Artists:  A B C D E F G H I J K L M N O P Q R S T U V W X Y Z # 

Intoxicated Tabs

(ver. 1) Click to play this song!
The Cab

E|------------------------------------------------------------------------------------------------|
B|---------------------14b16r14---------14-------------------------------------------------11/14--|
G|-------11--11----11------------8h11--------11-----------------11--11b13r11------------11--------|
D|--/13-----------------------------------------13--11--11/13----------------11h13p11-------------|
A|------------------------------------------------------------------------------------------------|
E|------------------------------------------------------------------------------------------------|


E|----------------------------------|
B|------------------------14/16\14--|
G|--------11------11--13------------|
D|---/13------13--------------------|
A|----------------------------------|
E|----------------------------------|            
Submit corrections

↑ Back to top | Tablatures and chords for acoustic guitar and electric guitar, ukulele, drums are parodies/interpretations of the original songs. You may use it for private study, scholarship, research or language learning purposes only