» » »

The Bravery - Swollen Summer Tabs

Artists:  A B C D E F G H I J K L M N O P Q R S T U V W X Y Z # 

Swollen Summer Tabs

(ver. 1) Click to play this song!
The Bravery
 Rating:
4/5 (9 votes)

 Swollen Summer lessons Tabs too difficult? Try these video lessons and learn fast
 
                There's like no other decent tabs of this on here so thought i'd try it myself

enjoy
=]


key:

sb=slight bend
hb=half bend
fb=full bend
t=trill
h=hammer on
p=pull off
r=release
x=number of times played
/slide up
slide down


Intro:

-|----------------------------------------------------------------|
-|----------------------------------------------------------------|
-|-7-7--10-10--5-5--12--12----------------------------------------|
-|-7-7--10-10--5-5--12--12----------------------------------------|
-|-5-5--8--8---3-3--10--10----------------------------------------|
-|----------------------------------------------------------------|


-|-15sbt--13--15sb-15sb--15-13--------------------------------------13----------|
-|------------------------------15--13--15--13--15--16--15--13--15------15hb----|
-|----------------------------------------------------------------------------13|
-|------------------------------------------------------------------------------|
-|------------------------------------------------------------------------------|
-|------------------------------------------------------------------------------|


-|-----------------13----------15sb--15hb--15fbr--15--13------------|
-|-13--15--13--15------15--13-----------------------------15--13--15|
-|------------------------------------------------------------------|
-|------------------------------------------------------------------|
-|------------------------------------------------------------------|
-|------------------------------------------------------------------|


then some keyboard stuff


-|-13--15--13--15hbr---1510p8h10p8h10p8h10p8------------------------|
-|------------------------------------------------------------------|
-|------------------------------------------------------------------|
-|------------------------------------------------------------------|
-|------------------------------------------------------------------|
-|------------------------------------------------------------------|

i don't know exactly how many pull off's and hammer on's there are


chorus:

-|----------------------------------------------------------------|
-|----------------------------------------------------------------|
-|-7-----------12-----10------------------------------------------|
-|-7-x8--8-----12-x8--10-x3--10-----------------------------------| x2
-|-5-----8-x8--10-----8------10-x3--------------------------------|
-|-------6-------------------8------------------------------------|

-|---------------------------------------------------------------------------------------------------|
 |---------------------------------------------------------------------------------------------------|
-|-------------------------------------------------12----12----12----12----15----15----13----12------|
 |---------------------------------------------------------------------------------------------------|
-|-11----11----11----11----12----12----12----12-------------------------------14----14----14---------|
 |---7-----------------------------------------------------------------------------------------------|
-|----12----12----12----12----12----12----12----12----12----12----12----12-----------------------12--| x2
then |---7-------------------------------------------------------------------------------------------|
-|---------------------------------------------------------------------------------------------------|
 |---5-----------------------------------------------------------------------------------------------|
-|---------------------------------------------------------------------------------------------------|
 |---------------------------------------------------------------------------------------------------|


more keyboard/other stuff


chorus again then

solo:

-|------1313131313--10------10------1313131313------12--10--10--1313131313----------10------1313131313------12--10-------|
-|-10/13----------------13------13--------------10--------------------------10--13------13--------------10----------10---|
-|-----------------------------------------------------------------------------------------------------------------------|
-|-----------------------------------------------------------------------------------------------------------------------|
-|-----------------------------------------------------------------------------------------------------------------------|
-|-----------------------------------------------------------------------------------------------------------------------|

-|-13------12------10------10--12--13------12------10------10--12--15------13------12------10------8-----------10------10-----|
-|-----10------10------10--------------10------10------10--------------13------13------13------10-----8--8/10------10------10-|
-|----------------------------------------------------------------------------------------------------------------------------|
-|----------------------------------------------------------------------------------------------------------------------------|
-|----------------------------------------------------------------------------------------------------------------------------|
-|----------------------------------------------------------------------------------------------------------------------------|

-|--------------------------------------------------------------------------------------------------|
-|-------------------------------------------------12----12----12----12----15----15----13----12-----|
-|-11----11----11----11----12----12----12----12-------------------------------14----14----14--------|
-|----12----12----12----12----12----12----12----12----12----12----12----12-----------------------12-| x4
-|--------------------------------------------------------------------------------------------------|
-|--------------------------------------------------------------------------------------------------|


ending:

-|-15fbt--15sb--15--15--13--------------------------------------------------------------|
-|--------------------------15--13--15--13--15fbr--13--15--15fb--15--15--15--15--15--15-|

(slowly release on
each 15)
-|--------------------------------------------------------------------------------------|
-|--------------------------------------------------------------------------------------|
-|--------------------------------------------------------------------------------------|

-|------------------------------------------------------15/17--17--17--15----------|
-|-13h15p13------13--------------12--13--15--12------------------------------------|
-|-----------14------14--12--14------------------14fbr-----------------------------|
-|---------------------------------------------------------------------------------|
-|---------------------------------------------------------------------------------|
-|---------------------------------------------------------------------------------|

-|--5--/7-7--5--/7-7--13------12------10------10------10-----------|
-|--4-/-6-6--4-/-6-6------10------10------10------10---------------|
-|--5/--7-7--5/--7-7-----------------------------------------------|
-|-----------------------------------------------------------------|
-|-----------------------------------------------------------------|
-|-----------------------------------------------------------------|

-|-13------12------10------10--12--13------12------10------10--12--15------13------12------10------8-----------10-----------|
-|-----10------10------10--------------10------10------10--------------13------13------13------10-----8--8/10---------------|
-|--------------------------------------------------------------------------------------------------------------------------|
-|--------------------------------------------------------------------------------------------------------------------------|
-|--------------------------------------------------------------------------------------------------------------------------|
-|--------------------------------------------------------------------------------------------------------------------------|

-|-------|
-|-------|
-|---7---|
-|---7---|
-|---5---|
-|-------|
            
Submit corrections


        Swollen Summer lessons Hard to play? Try these video lessons and learn fast Swollen Summer lessons
        
↑ Back to top | Tablatures and chords for acoustic guitar and electric guitar, ukulele, drums are parodies/interpretations of the original songs. You may use it for private study, scholarship, research or language learning purposes only