» » »

The Black Angels - Tabs

Artists:  A B C D E F G H I J K L M N O P Q R S T U V W X Y Z # 

Tabs

(ver. 1) Click to play this song!
The Black Angels
 Rating:
4.1/5 (31 vote)

  lessons Tabs too difficult? Try these video lessons and learn fast
 
                [Intro]
e|------------------------------------------------------|
B|------------------------------------------------------|
G|----------------------------3-------------------------|
D|-(5)-(5)--(5)-(5)--(5)-(5)----5-(5)--(5)-(5)--(5)-(5)-|
A|------------------------------------------------------|
E|------------------------------------------------------|

e|------------------------------------------------------|
B|------------------------------------------------------|
G|---------------------------------3------------3-------|
D|-----3--5-(5)--(5)-(5)--(5)-(5)----5-(5)--(5)---5-(5)-|
A|-3-5--------------------------------------------------|
E|------------------------------------------------------|

e|-----------------------------------------------------------|
B|-----------------------------------------------------------|
G|---------------------------------3-------------------------|
D|-----3--5-(5)--(5)-(5)--(5)-(5)----5-(5)--(5)-(5)--(5)-(5)-|
A|-3-5-------------------------------------------------------|
E|-----------------------------------------------------------|

e|-------------------------------------------------------------|
B|-------------------------------------------------------------|
G|---------------------------------3-5b6r5--5b7-7r5--5-5/7-5-3-|
D|-----3--5-(5)--(5)-(5)--(5)-3/5------------------------------|
A|-3-5---------------------------------------------------------|
E|-------------------------------------------------------------|

[Verse]
e|-----------------------------------------------|
B|-----------------------------------------------|
G|---------------------3---3---------------------|
D|-5-(5)--(5)-(5)--(5)---5---5-(5)--(5)-(5)--(5)-|
A|-----------------------------------------------|
E|-----------------------------------------------|

e|-----------------------------------------------------|
B|-----------------------------------------------------|
G|---------3-------------3------------3--------3-------|
D|-----3-5---5--(5)-(5)----5-3h5--(5)---5--(5)---5-3h5-|
A|-3-5-------------------------------------------------|
E|-----------------------------------------------------|

e|-------------------------------------------------|
B|-------------------------------------------------|
G|-----------------------3-------------------------|
D|-(5)-(5)--(5)-(5)--(5)---5-(5)--(5)-(5)--(5)-(5)-|
A|-------------------------------------------------|
E|-------------------------------------------------|

e|----------------------------------------------------------------|
B|----------------------------------------------------------------|
G|----------------------------3-----------------------------------|
D|-----3--5-(5)--(5)-(5)--(5)----5-(5)--(5)-(5)--(5)-(5)--(5)-(5)-|
A|-3-5------------------------------------------------------------|
E|----------------------------------------------------------------|

[Pre-Hook]
e|----------------------------|
B|----------------------------|
G|-/7-7~-7~-7~-7~--7-6-6b7r6~-|
D|----------------------------|
A|----------------------------|
E|----------------------------|

[Solo]
e|---------------------6------------------6------------------6--------|
B|-6--8-8--8-8--8-8-8----8-8--8-8--8-8-8----8-8--8-8--8-8-8----8-8--8-|
G|--------------------------------------------------------------------|
D|--------------------------------------------------------------------|
A|--------------------------------------------------------------------|
E|--------------------------------------------------------------------|

[Bridge]
e|-----------------------------------------------------------|
B|-----------------------------------------------------------|
G|---------------------------------3-------------------------|
D|-----3--5-(5)--(5)-(5)--(5)-(5)----5-(5)--(5)-(5)--(5)-(5)-|
A|-3-5-------------------------------------------------------|
E|-----------------------------------------------------------|

e|-----------------------------------------------------------------|
B|-----------------------------------------------------------------|
G|---------------------------------3-5--6b7-5---6b7-5---6b7-5-5--3-|
D|-----3--5-(5)--(5)-(5)--(5)--3/5---------------------------------|
A|-3-5-------------------------------------------------------------|
E|-----------------------------------------------------------------|

[Verse]
e|----------------------------------------------------|
B|----------------------------------------------------|
G|--------------------------3-------------------------|
D|-5-(5)--(5)-(5)--(5)-(5)----5-(5)--(5)-(5)--(5)-(5)-|
A|----------------------------------------------------|
E|----------------------------------------------------|

e|------------------------------------------------------------------------------------------|
B|------------------------------------------------------------------------------------------|
G|----------------------3--------3-5-3--------------3------------3--------------------------|
D|-----3-5-3-5-(5)--(5)----5-(5)-------5-(5)--5-3-5---5-(5)--(5)----5-(5)--(5)-(5)--(5)-(5)-|
A|-3-5--------------------------------------------------------------------------------------|
E|------------------------------------------------------------------------------------------|

e|----------------------------------------------------------------|
B|----------------------------------------------------------------|
G|-----------------------3----------------------------------------|
D|---------3--5-(5)--(5)----5-(5)--(5)-(5)--(5)-(5)--(5)-(5)--(5)-|
A|-3-5-3-5--------------------------------------------------------|
E|----------------------------------------------------------------|

[Pre-Hook]
e|-----------------------------------|
B|-----------------------------------|
G|-/7-7~-7~-7~-7~--7-6-7-/7-7~-7~-7~-|
D|-----------------------------------|
A|-----------------------------------|
E|-----------------------------------|

[Solo]
e|----------------------6--------6-------------6-----------------6---6----------------|
B|-6--8-8--(8)-(8)--(8)----8-(8)----8-(8)--6-8---8-(8)--(8)-(8)----8---8-(8)--(8)-(8)-|
G|------------------------------------------------------------------------------------|
D|------------------------------------------------------------------------------------|
A|------------------------------------------------------------------------------------|
E|------------------------------------------------------------------------------------|

[Bridge]
e|-------------------------------------------------------|
B|-------------------------------------------------------|
G|----------------------------3--------------------------|
D|-----3--5-(5)--(5)-(5)--(5)----5-(5)--(5)-(5)--(5)-(5)-|
A|-3-5---------------------------------------------------|
E|-------------------------------------------------------|

e|----------------------------------------|
B|----------------------------------------|
G|----------------------3--------3--------|
D|-----3-5-3-5-(5)--(5)----5-(5)----5-(5)-|
A|-3-5------------------------------------|
E|----------------------------------------|
 
e|-------------------------------------------------------|
B|-------------------------------------------------------|
G|----------------------------3--------------------------|
D|-----3--5-(5)--(5)-(5)--(5)----5-(5)--(5)-(5)--(5)-(5)-|
A|-3-5---------------------------------------------------|
E|-------------------------------------------------------|

e|--------------------------------------------------------| 
B|--------------------------------------------------------| 
G|-------------------------3-5--5/7b-6--7b-6--7b-6--7p6-3-| 
D|--------3-5-(5)--(5)-3/5--------------------------------| 
A|-3-5--5-------------------------------------------------| 
E|--------------------------------------------------------| 

e|----------------------------------------------------------------------------------|
B|----------------------------------------------------------------------------------|
G|--------------3---3-----------3------------3-----------------3--------------3-----|
D|-5-(5)--5-(5)---5---5-(5)-3-5---5-(5)----5---5-(5)--(5)-(5)----5-3-------3----5-3-|
A|-------------------------------------------------------------------5p3-5----------|
E|----------------------------------------------------------------------------------|

[Verse]
e|----------------------------------------------------------|
B|----------------------------------------------------------|
G|--------------------------------3-------------------------|
D|-(5)-(5)--(5)-(5)--(5)-(5)--(5)---5-(5)--(5)-(5)--(5)-(5)-|
A|----------------------------------------------------------|
E|----------------------------------------------------------|

e|-------------------------------------------------------|
B|-------------------------------------------------------|
G|----------------------------3--------------------------|
D|-----3--5-(5)--(5)-(5)--(5)----5-(5)--(5)-(5)--(5)-(5)-|
A|-3-5---------------------------------------------------|
E|-------------------------------------------------------|

e|---------------------------------------|
B|---------------------------------------|
G|----------------------3-------3--------|
D|---------3-5-(5)--(5)----5-(5)---5-(5)-|
A|-3-5-3-5-------------------------------|
E|---------------------------------------|

e|---------------------------------------------------------------------|
B|---------------------------------------------------------------------|
G|----------------------------3----------------------------------------|
D|-----3--5-(5)--(5)-(5)--(5)----5-(5)--(5)-(5)--(5)-(5)--(5)-(5)--(5)-|
A|-3-5-----------------------------------------------------------------|
E|---------------------------------------------------------------------|

[Pre-Hook]
e|-----------------------------|
B|-----------------------------|
G|-/7-7~-7~-7~-7~--/7-6-/6-6~--|
D|-----------------------------|
A|-----------------------------|
E|-----------------------------|

[Outro]
   G     (----x4----)
e|-3--3---3--3-3--3--|
B|-3--3---3--3-3--3--|
G|-4--4---4--4-4--4--|
D|-5--5---5--5-5--5--| 
A|-5--5---5--5-5--5--|
E|-3--3---3--3-3--3--| 

e|-3--3--3-3-3---3-3-3-3--|
B|-3--3--3-3-3---3-3-3-3--|
G|-4--4--4-4-4---4-4-4-4--|
D|-5--5--5-5-5---5-5-5-5--|
A|-5--5--5-5-5---5-5-5-5--|
E|-3--3--3-3-3---3-3-3-3--|

e|-3--3-3--3---3-3-3--3-3-3-3--|
B|-5--5-5--5---5-5-5--5-5-5-5--|
G|-5--5-5--5---5-5-5--5-5-5-5--|
D|-4--4-4--4---4-4-4--4-4-4-4--|
A|-3--3-3--3---3-3-3--3-3-3-3--|
E|-3--3-3--3---3-3-3--3-3-3-3--|            
Submit corrections


         lessons Hard to play? Try these video lessons and learn fast  lessons
        
↑ Back to top | Tablatures and chords for acoustic guitar and electric guitar, ukulele, drums are parodies/interpretations of the original songs. You may use it for private study, scholarship, research or language learning purposes only