» » »

The Band - It Makes No Difference Tabs

Artists:  A B C D E F G H I J K L M N O P Q R S T U V W X Y Z # 

It Makes No Difference Tabs

(ver. 1) Click to play this song!
The Band
 Rating:
4/5 (4 votes)

 It Makes No Difference lessons Tabs too difficult? Try these video lessons and learn fast
 
                   Bb           Gm                                Eb      F             Bb          

e|-6--10--13--13/15-15-15-13/15-15-15-13/15-15-15-18v------11p10--8/10--6--|
b|-6--10--13--13/15-15-15-13/15-15-15-13/15-15-15-15---8/10-------8/10--7--|
g|-------------------------------------------------------------------------|
d|-------------------------------------------------------------------------|
a|-------------------------------------------------------------------------|
e|-------------------------------------------------------------------------|

         Eb                      Bb         Eb   It makes no difference...
e|-------------6----------6------6-6--6-8-10------|
b|-------------6----------6------6-6----------8~~-|
g|----3p-5b7-5b7r5--5p3-5b7r5--3-0-3--7-8-10--8~~-|
d|-3/5----------------------------------------8~~-|
a|--------------------------------------------6~~-|
e|--------------------------------------------6~~-|

            
Submit corrections


        It Makes No Difference lessons Hard to play? Try these video lessons and learn fast It Makes No Difference lessons
        
↑ Back to top | Tablatures and chords for acoustic guitar and electric guitar, ukulele, drums are parodies/interpretations of the original songs. You may use it for private study, scholarship, research or language learning purposes only