Home » T » The Antlers »

The Antlers - In The Attic Tabs

Artists:  A B C D E F G H I J K L M N O P Q R S T U V W X Y Z # 

In The Attic Tabs

(ver. 1) Click to play this song!
The Antlers
The chords for this song are pretty good, but there's no exact tab of what Peter 
Silberman plays in this song.
I thought I'd go ahead and fill this hole.

INTRO (1:16)
acoustic guitar; emphasize the respective highest note (these make up the main melody).

    G                          Em
e|--------------------------------------------------------------------|
B|-(0)---------(0)---------(0)----------------------------------------|
G|--4-----0--2--4-----0--2--4-----2--0-----0--------0-----------------|
D|--0-----0--0--0-----0--0--0-----0--0-----4--------4--2--------------|
A|--2--2--2--2--2--2--2--2--2--2--2--2--2--2--2--2--2--2--2--2--2--2--|
E|--3--3--3--3--3--3--3--3--3--3--3--3--3--0--0--0--0--0--0--0--0--0--|

    C                    G           D
e|--0--------------------------------------------------------------------|
B|--1--------3-----------3-----1--0--3-----3--3--3--3--3--3--3--3--3--3--|
G|--0--------0-----0--2--0-----0--0--2-----4--0--2--2--4--0--2--2--4--0--|
D|--2--2--2--2--2--2--0--0-----0--0--0--0--0--0--0--0--0--0--0--0--0--0--|
A|--3--3--3--3--3--3--3--2--2--2--2--0--0--0--0--0--0--0--0--0--0--0--0--|
E|-----------------------3--3--3--3--------------------------------------|

Same pattern for the
VERSE (1:57)

    G                          Em
e|--------------------------------------------------------------------|
B|-(0)---------(0)---------(0)----------------------------------------|
G|--4-----0--2--4-----0--2--4-----2--0-----0--------0-----------------|
D|--0-----0--0--0-----0--0--0-----0--0-----4--------4--2--------------|
A|--2--2--2--2--2--2--2--2--2--2--2--2--2--2--2--2--2--2--2--2--2--2--|
E|--3--3--3--3--3--3--3--3--3--3--3--3--3--0--0--0--0--0--0--0--0--0--|
Completey awake                  I dont    drift      anymore.
         in the back of the car,


    C                    G           D               Asus4
e|--0--------------------------------------------------------------------|
B|--1--------3-----------3-----1--0--3-----3--3--3--3--3--3--3--3--3--3--|
G|--0--------0-----0--2--0-----0--0--2-----4--0--2--2--4--0--2--2--4--0--|
D|--2--2--2--2--2--2--0--0-----0--0--0--0--0--0--0--0--2--2--2--2--2--2--|
A|--3--3--3--3--3--3--3--2--2--2--2--0--0--0--0--0--0--0--0--0--0--0--0--|
E|-----------------------3--3--3--3--------------------------------------|
   All's come into place and I unlock the door.

Same for:
If you have to warm up,
you can go back inside,
but I'm not going to follow forward
I've come to prefer
sleeping outdoors.

CHORUS (02:41)
acoustic & electric guitar; hit those chords hard.
    Em                 G                  C                G          D
e|--0--x--x--0--------------------------------------------------------------|
B|--0--x--x--0---------3--x--x--3---------1--x--x--1-------3--3--x--x--3--3-|
G|--0--x--x--0---------4--x--x--4---------0--x--x--0-------4--4--x--x--2--2-|
D|--2--x--x--2---------5--x--x--5---------2--x--x--2-------5--5--x--x--0--0-|
A|--2--x--x--2---------5--x--x--5---------3--x--x--3-------5--5--x--x--0--0-|
E|--0--x--x--0---------3--x--x--3---------3--x--x--3-------3--3--x--x--x--x-|
   Up-     stairs and down-   stairs and out-    side on the roof

    Em                 G                  C             D         Asus4
e|--0--x--x--0--------------------------------------------------------------|
B|--0--x--x--0---------3--x--x--3---------1-----1-----3-----3-----3--3--3--3|
G|--0--x--x--0---------4--x--x--4---------0-----0-----2-----2-----2--2--2--2|
D|--2--x--x--2---------5--x--x--5---------2-----2-----0-----0-----2--2--2--2|
A|--2--x--x--2---------5--x--x--5---------3--2--3--2--0--0--0--0--0--0--0--0|
E|--0--x--x--0---------3--x--x--3---------3--3--3--3--x--x--x--x------------|
   Small    stars and steel    bars say the ghosts          tell the truth
                                            up in the attic

INTERLUDE (3:07)
Piano

  G                           Em         C           G      D         Asus4
e|---------------------------------------0----------------------------------|
B|0-------0----------0----------------------3--------0--1--0----0-------0---|
G|---0--2------0--2-------2--0-----0-----------0--2----------2-----0--2---0-|
D|-----------------------------4------2-------------------------------------|
A|--------------------------------------------------------------------------|
E|--------------------------------------------------------------------------|

repeat

VERSE (3:50)
-> 1st verse

CHORUS (4:33)
-> 1st chorus; end on G


As always, feel free to rate & comment & correct.
            
Submit corrections

↑ Back to top | Tablatures and chords for acoustic guitar and electric guitar, ukulele, drums are parodies/interpretations of the original songs. You may use it for private study, scholarship, research or language learning purposes only