» » »

The Almost - Little Drummer Boy Tabs

Artists:  A B C D E F G H I J K L M N O P Q R S T U V W X Y Z # 

Little Drummer Boy Tabs

(ver. 1) Click to play this song!
The Almost
 Rating:
3/5 (6 votes)

 Little Drummer Boy lessons Tabs too difficult? Try these video lessons and learn fast
 
                Band: The Almost
Tuning: Drop D

My first tab.  Leave positive comments please!

Intro/Chorus (Drum Part)

e|-------------|
B|-------------|
G|-------------|
D|--5--2--10---|
A|--5--2--10---|
D|--5--2--10---|
(Figure out the strumming)

Verse:

e|-------------------|
B|-------------------|
G|-------------------|
D|--5--2--10--5--7---|
A|--5--2--10--5--7---|
D|--5--2--10--5--7---|
(Figure out the strumming)

Outro:

e|------------------|
B|------------------|
G|------------------|
D|--5--7--5--7--5---|
A|--5--5--5--5--5---|
D|--5--5--5--5--5---|
            
Submit corrections


        Little Drummer Boy lessons Hard to play? Try these video lessons and learn fast Little Drummer Boy lessons
        
↑ Back to top | Tablatures and chords for acoustic guitar and electric guitar, ukulele, drums are parodies/interpretations of the original songs. You may use it for private study, scholarship, research or language learning purposes only