» » »

The Almost - July Tabs

Artists:  A B C D E F G H I J K L M N O P Q R S T U V W X Y Z # 

July Tabs

(ver. 1) Click to play this song!
The Almost
 Rating:
2.8/5 (26 votes)

 July  lessons Tabs too difficult? Try these video lessons and learn fast
 
                

Intro:

Guitar 1 
e|-16~----------------------------------------------------------------------------------------------------|
B|-----17~----------------------0000----------------0000-----------------0000-----------------------------|
G|--------------------9999-7777-----------9999-7777------------9999-7777----------------------------------|
D|--------------------9999-7777------777~-9999-7777------77-xx-9999-7777------77-x-4~44~4-2-4-7~7-9~-7777-|
A|--------------------7777-5555------777~-7777-5555------77-xx-7777-5555------77-x-4~44~4-2-4-7~7-7~-7777-|
D|-----------------------------------777~----------------77-xx----------------77-x-4~44~4-2-4-7~7-7~-7777-|
     ^  ^ these replace feedback/artificial harmonics I can't figure out
Guitar 2
e|--------------------------------------------------------------------------------------------------------|
B|--------------------------------------------------------------------------------------------------------|
G|--------------------9999-7777-----------9999-7777-------.----9999-7777----------------------------------|
D|--------------------9999-7777-5555-7777-9999-7777-5555-77----9999-7777-5555-77-x-4~44~4-2-4-7~7-9~-7777-|
A|--------------------7777-5555-5555-7777-7777-5555-5555-77----7777-5555-5555-77-x-4~44~4-2-4-7~7-7~-7777-|
D|-2~~~~~~~~~~~~~~~-------------5555-7777-----------5555-77--------------5555-77-x-4~44~4-2-4-7~7-7~-7777-|
      
Verse/Prechorus:

Guitar 1
e|---------0-----0~---------0-----0~----------------------------------------------------------------------|
B|-----------0-3----0~~~------0-3--------------------.--.--------------.--.----------.--.------------.--.-|
G|-0~~~~~~~~~~~~~~~~~~~~~-------------------1212121212-12--1111111111/12-12---12121212-12--11111111/12-12-|
D|--------------------------------------------------------------------------------------------------------|
A|------------------------------------------1010101010-10--9-9-9-9-9-/10-10---10101010-10--9-9-9-9-/10-10-|
D|--------------------------------------------------------------------------------------------------------|

e|-----------------------------------------------------------------|
B|----------------.------------------------------------------------|
G|-12-----11-----11--12-----11----11~11~11~--11~11~11~-------------|
D|-----x8-----x7---------x6----x8------------------------(pause)---|
A|-10-----9------9---10-----9-----9~-9~-9~---9~-9~-9~--------------|
D|-----------------------------------------------------------------|

Guitar 2
e|-------------------------------------------------------------------------------------------------------|
B|----------------------.-.------.-.-----.-.-------.-.---------.-----------------------------------------|
G|----(silence)-----44444-4-444444-4--4444-4--7777-9-9--4------4--9-----7-----7~7~-0~~~-0~0~0~-----------|
D|---------------------------------------------------------x15-------x8----x8-------------------(pause)--|
A|------------------22222-2-222222-2--2222-2--5555-7-7--2------2--7-----5-----5~5~-----------------------|
D|-------------------------------------------------------------------------------------------------------|

Chorus:

Guitar 1
e|-------------------------2x-|-------------------------------------------------------------------|
B|----------------------------|-------------------------------------------------------------------|
G|----------------------------|-------------------------------------------------------------------|
D|-2~2~2~-5~-7~-7~7~7~-10~----|-2~2~2~-5~-7~-7~7~-5~-10~-----2~2~2~-5~-7~-7~7~-5~-10~-10~----xxxx-|
A|-2~2~2~-5~-7~-7~7~7~-10~-x8-|-2~2~2~-5~-7~-7~7~-5~-10~-x8--2~2~2~-5~-7~-7~7~-5~-10~-10~-x5-xxxx-|
D|-2~2~2~-5~-7~-7~7~7~-10~----|-2~2~2~-5~-7~-7~7~-5~-10~-----2~2~2~-5~-7~-7~7~-5~-10~-10~----xxxx-|

Guitar 2 (not 100% accurate)
e|-000000-00-|-00000-777-|
B|--------33-|-----------|
G|-----------|-----------|
D|-----------|-----------|
A|-----------|-----------|
D|-------16x-|-----------|

Guitar 1
e|---------------------------------------------------------------------------------------|
B|---------------------------------------------------------------------------------------|
G|-9999-7777-----------9999-7777--------------9999-7777----------------------------------|
D|-9999-7777-5555-7777-9999-7777-5555-77-xx---9999-7777-5555-77-x-4~44~4-2-4-7~7-9~-7777-|
A|-7777-5555-5555-7777-7777-5555-5555-77-xx---7777-5555-5555-77-x-4~44~4-2-4-7~7-7~-7777-|
D|-----------5555-7777-----------5555-77-xx-------------5555-77-x-4~44~4-2-4-7~7-7~-7777-|

e|-10~----------This is done-------------------12-----12-----12--------------------------|
B|-13b15~r---repeatedly, listen---(pause)---------------------.--------------------------|
G|-------------to the song-----------------14b16~-14b16~-14b16~--------------------------|
D|----------------------------------------------------------------4~44~4-2-4-7~7-9~-7777-|
A|----------------------------------------------------------------4~44~4-2-4-7~7-7~-7777-|
D|----------------------------------------------------------------4~44~4-2-4-7~7-7~-7777-|

Verse 2:

Guitar 1
e|-------------------------------------------------------------|
B|-------------------------------------------------------------|
G|-------------------------------------------------------------|
D|-------------------------------------------------------------|
A|-------------------------------------------------------------|
D|-2~----------(silence)---------------------------------------|

Guitar 2 (echo effect of some kind)
e|-7~--------------0~---------7~-------------10~~~~~~~~~~~~~~~-|
B|----8~-8~----------------------8~-8~-------12~~~~~~-10~~~~~~-|
G|-------------------------------------------------------------|
D|-------------------------------------------------------------|
A|-------------------------------------------------------------|
D|-------------------------------------------------------------|

Prechorus:

Guitar 1                                                                            V Echo effect V
e|----------------------------------------------------------------------------------10~~~~~---------|
B|------------------------------.------------.--.--------------.--.---------------------------------|
G|-12-----11-----12-----11-----12--1111-121212-12--1111111111/12-12--12-----11--------------11~~~~~-|
D|-----x8-----x8-----x8-----x7-------------------------------------------x8-----x8------------------|
A|-10-----9------10-----9------10--9-9--101010-10--9-9-9-9-9-/10-10--10-----9-----------------------|
D|--------------------------------------------------------------------------------------------------|

Guitar 2                                                 V Switch to clean tone here
e|---------------------------------------------------000----------------------------------|
B|----------------------------------------5-----3333-----1~--1~---------------------------|
G|--------5------2------------------------------2222-222-0~--0~-----0~-0~0~------(pause)--|
D|-2------5--x8--2--x8-----.-.------.-.---5--x8-2222-222-2~--2~-----4~-4~-----------------|
A|-2--x16-3------0-----22222-2-222222-2---3-----0000-000-3~--3~---------------------------|
D|-2-------------------22222-2-222222-2---------------------------------------------------|

Repeat:
Chorus - keep playing the last chord in Guitar 1 until the bridge. Guitar 2 is a bit different:
Guitar 2 (not 100% accurate)
e|-000000-00-|-00-------------|
B|--------33-|----5p3-7p3-5p3-|
G|-----------|----------------|
D|-----------|----------------|
A|-----------|----------------|
D|-------16x-|----------------|

Bridge:

Guitar 1
e|------------------------------------------------------------------------------------------|
B|----------------------------------------------------------------------------------------.-|
G|------------------------------.------.-----.-------.-.----------------------------------7-|
D|-2~----5~----7~-----10~10~10~-2-----/5-----7-----777-7-----10~10~10~--------------------7-|
A|-2~-x8-5~-x8-7~-x13-10~10~10~-2--x8-/5--x8-7--x7-777-7--x4-10~10~10~-2~--------0~-------5-|
D|-2~----5~----7~-----10~10~10~-2-----/5-----7-----777-7-----10~10~10~-2~---0~--------------|

Guitar 2
e|------------------------------|-------------------4x-|------------------------------------|
B|------------------------------|-----------0~0~-------|------------------------------------|
G|-0~-x8-2~-x4-0~0~0~0~0~0~-x14-|-0~0~-2~2~---------0~-|---(silence)--------0~------------x-|
D|------------------------------|----------------4~----|-------------------------4~-------x-|
A|------------------------------|----------------------|----------------------------------x-|
D|------------------------------|----------------------|------------------------------------|

Final Chorus:

Guitar 1
e|-----------------------------------------------------------------------|
B|-----------------------------------------------------------------------|
G|-----------------------------------------------------------------------|
D|---------2~2~2~-5~-7~-7~7~-5~-10~-----2~2~2~-5~-7~-7~7~-5~-10~-10~-----|
A|-10~-x16-2~2~2~-5~-7~-7~7~-5~-10~-x8--2~2~2~-5~-7~-7~7~-5~-10~-10~-x16-|
D|-10~-----2~2~2~-5~-7~-7~7~-5~-10~-----2~2~2~-5~-7~-7~7~-5~-10~-10~-----|
     
Guitar 2 (not 100% accurate)
e|----------------------||--121212121212-1212-|-1515-14-1212121212--||-12--x12-|
B|-17------15----12-----||o--------------1515-|--------------------o||---------|
G|-----x12----x4----x16-||--------------------|---------------------||---------|
D|-14------12----9------||--------------------|---------------------||---------|
A|----------------------||o-------------------|--------------------o||---------|
D|----------------------||-----------------2x-|------------------2x-||---------|

Outro:

Guitar 1
e|-------------------------------------------------------------------------------------||
B|-------------------------------------------------------------------------------------||
G|-9999-7777---------------------------------9999-7777-----------9999-7777-----------.-||
D|-9999-7777-5555-7777-2222-0000-5555-7-xx---9999-7777-5555-7777-9999-7777-5555-7777-2-||
A|-7777-5555-5555-7777-2222-0000-5555-7-xx---7777-5555-5555-7777-7777-5555-5555-7777-2-||
D|-----------5555-7777-2222-0000-5555-7-xx-------------5555-7777-----------5555-7777-2-||

Guitar 2
e|-0000-0000-----------0000-0000-----------0000-0000-----------0000-0000-------------||
B|------3333-0000-0000------3333-0000-0---------3333-0000-0000------3333-0000-0000---||
G|----------------2222----------------2-------------------2222----------------2222-.-||
D|------------------------------------.--------------------------------------------2-||
A|---------------------------------------------------------------------------------2-||
D|---------------------------------------------------------------------------------2-||            
Submit corrections


        July  lessons Hard to play? Try these video lessons and learn fast July  lessons
        
↑ Back to top | Tablatures and chords for acoustic guitar and electric guitar, ukulele, drums are parodies/interpretations of the original songs. You may use it for private study, scholarship, research or language learning purposes only