» » »

The Almost - Get Through Tabs

Artists:  A B C D E F G H I J K L M N O P Q R S T U V W X Y Z # 

Get Through Tabs

(ver. 1) Click to play this song!
The Almost
 Rating:
4/5 (4 votes)

 Get Through lessons Tabs too difficult? Try these video lessons and learn fast
 
                
This is a tab for "Get Through", from the album 'Monster Monster'.

Intro
e|--------------|----------|
b|--------------|----------|
g|--------------|----------|
d|--7789p0-8899-|-7789-----|
a|--7789p0-8899-|-7789-----|
d|--7789p0-8899-|-7789-----|

Verse
Guitar 1
*comes in half way through
e|----------------------------------------------------|
b|--1010101010101010888777-101010101010101010/1288777-|
g|-- 0 0 0 0 0 0 0 0000000- 0 0 0 0 0 0 0 0 0/ 000000-|
d|----------------------------------------------------|
a|----------------------------------------------------|
d|----------------------------------------------------|

Guitar 2
e|--------------|----------------------|
b|--------------|----------------------|
g|--------------|----------------------|
d|--7789p0-8899-|--5555p0-2222p0-------|
a|--7789p0-8899-|--5555p0-2222p0-------|
d|--7789p0-8899-|--5555p0-2222p0-------|
                 "you wont..."

Prechorus
Guitar 1
e|--------------|
b|--0000/0/0----|
g|--6667/4/2----|
d|--------------|
a|--------------|
d|--------------|

Guitar 2
e|---------------------|
b|---------------------|
g|---------------------|
d|--777/9--55555555----|
a|--777/9--55555555----|
d|--777/9--55555555----|

Chorus
Guitar 1
e|-----------------|
b|------3-5---3----|
g|--4-6-----6------|
d|-----------------|
a|-----------------|
d|-----------------|

Guitar 2
e|---0 0 0 0 0 0 0 0-00000000-00000000-00000000-|
b|---0 0 0 0 0 0 0 0-00000000-00000000-00000000-|
g|--1111111111111111-99999999-77777777-99999999-|
d|---9 9 9 9 9 9 9 9-77777777-45555555-77777777-|
a|---9 9 9 9 9 9 9 9-77777777-45555555-77777777-|
d|---9 9 9 9 9 9 9 9-77777777-45555555-77777777-|
"If i was real..."

Bridge
*comes in after that slight pause
e|----------------------|---------------------------|
b|----------------------|---------------------------|
g|----------------------|---------------------------|
d|--7-9-4-5--7-9-5------|-7-9-4-5--7-9-5-7-9-5-8-7--|
a|--7-9-4-5--7-9-5------|-7-9-4-5--7-9-5-7-9-5-8-7--|
d|--7-9-4-5--7-9-5--*4b-|-7-9-4-5--7-9-5-7-9-5-8-7--|
"down on me down on me..."

Interlude
Guitar 1
e|-------------------------------|
b|-------------------------------|
g|-------------------------------|
d|--7h9-9p7-7~---7~---2244455----|
a|--------------7~----2255555----|
d|-------------7~-----2244455----|

Guitar 2
e|--0~--0~--0~--0~---|
b|--0~--0~--0~--0~---|
g|-11~--9~--7~--9~---|
d|--9~--7~--5~--7~---|
a|--9~--7~--5~--7~---|
d|--9~--7~--5~--7~---|
            
Submit corrections


        Get Through lessons Hard to play? Try these video lessons and learn fast Get Through lessons
        
↑ Back to top | Tablatures and chords for acoustic guitar and electric guitar, ukulele, drums are parodies/interpretations of the original songs. You may use it for private study, scholarship, research or language learning purposes only