Home » T » The All American Rejects »

The All American Rejects - Ferret In My Purple Shoe Tabs

Artists:  A B C D E F G H I J K L M N O P Q R S T U V W X Y Z # 

Ferret In My Purple Shoe Tabs

(ver. 1) Click to play this song!
The All American Rejects
 Rating:
4/5 (4 votes)
                This is a cool song, just listen to get the parts in the right order and timed right.

Verse
-------------------------------------------7---------------87-8-----3p4----4h5h6p8

Chorus
---------5p6-----------------------------------------------------------------------
----------------6p7----------------------------------------------------------------
-----------------------------7p8-----9h10------------------------------------------
--------------------------------------------------10p11----------------------------
------------------------------------------------------------11p12------------------

Interlude
-3333333333333333333333333333333333333333333333333333333333333333333333333333333333
-3333333344444444333333335555555555555555333333337777777788888888999999999999999123
-0000000000000000000000000000000000000000000000000000000000000000000000000000000000
-0000000000000000000000000000000000000000000000000000000000000000000000000000000000

Ending
-----------------7777777788888888----------------9999999999999999--------88888888
-66666666666666666666666666666666----------------10--10--10--10--10--10--10--10--
-66666666666666666666666666666666----------------12--12--12--12--12--12--12--12--
-88888888888888888888888899999999----------------14--14--14--13--13--14--13--14--
---------------------------------13--13--13--13----------------------------------

That's it!  I know, it's hard to believe that it can be that easy! But I'm positive it is right!

Have Fun!

Here are the Lyrics if you need them:

Ferret in my purplr shoe 
Ferret in my purple shoe
Ferret in my purple shoe
LU LU LU LU LU

Ferret in my purplr shoe 
Ferret in my purple shoe
Ferret in my purple shoe
LU LU LU LU LU

Ferret in my purplr shoe 
Ferret in my purple shoe
Ferret in my purple shoe
LU LU LU LU LU

Ferret in my purplr shoe 
Ferret in my purple shoe
Ferret in my purple shoe
LU LU LU LU LU

Ferret in my purplr shoe 
Ferret in my purple shoe
Ferret in my purple shoe
LU LU LU LU LU

Ferret in my purplr shoe 
Ferret in my purple shoe
Ferret in my purple shoe
LU LU LU LU LU

Ferret in my purplr shoe 
Ferret in my purple shoe
Ferret in my purple shoe
LU LU LU LU LU
MOO MOO

The lyrics are kinda wierd, but it's ok.
            
Submit corrections

↑ Back to top | Tablatures and chords for acoustic guitar and electric guitar, ukulele, drums are parodies/interpretations of the original songs. You may use it for private study, scholarship, research or language learning purposes only