» » »

The All American Rejects - Doughnut In The Box Tabs

Artists:  A B C D E F G H I J K L M N O P Q R S T U V W X Y Z # 

Doughnut In The Box Tabs

(ver. 1) Click to play this song!
The All American Rejects
 Rating:
4/5 (4 votes)

 Doughnut In The Box lessons Tabs too difficult? Try these video lessons and learn fast
 
                This tab is 99% correct. It took me 2 years to figure this one out!

intro
----------------------------------------------
-------4-5-6-7-8--9---------------------------
-------------------------------8----------9---
---------8-----------------0-----------3------
--5---3---4---7--9-8--------------------------
----------------9--------------7----5-4-------

verse
-------------------------6--7-8-----23-------
--4---8-7--98------2p-5---------------7h6----
---------------------------------------------
---------------------------------------------
-------5--------2-39-------------------------
-----5---87----34-3-2-23---2-3---------------

chorus
----------5-7-6--------------345-4------------------23
------------------------------------------------------
-------------------------------------------------------
-----------------------------6----66-6-66666666666666666
---------------------------------------------------------
-----------6--------------8999972212111213---------------

outro
---------------------------------------------------------
---------------------------------------------------------
--------------------7-------------------------------------
--------------------------------------8------------------
------------------------------------------------------9
-------------------------------------------------------------10(let ring)

That's it!
            
Submit corrections


        Doughnut In The Box lessons Hard to play? Try these video lessons and learn fast Doughnut In The Box lessons
        
↑ Back to top | Tablatures and chords for acoustic guitar and electric guitar, ukulele, drums are parodies/interpretations of the original songs. You may use it for private study, scholarship, research or language learning purposes only