Home » T » That Handsome Devil »

That Handsome Devil - Shutup Youre Stupid Tabs

Artists:  A B C D E F G H I J K L M N O P Q R S T U V W X Y Z # 

Shutup Youre Stupid Tabs

(ver. 1) Click to play this song!
That Handsome Devil
[Intro]
 
E|------------------------------------|
B|------------------------------------|
G|------------------------------------|
D|---7-----7-5------------------------|
A|-7----7-------5--7-4--0-------------|
E|------------------------------------|
 
E|------------------------------------|
B|------------------------------------|
G|------------------------------------|
D|---7-----7-5------------------------|
A|-7----7-------5--7----------0-------|
E|-------------------10---9-9--9--9/11|
 
(Pause For Verse 1)
 
 
[Bridge]
 
E|---------------------------------|
B|---------------------------------|
G|---------------------------------|
D|---------------------------------| (x4)
A|---------------------------------|
E|-2--2-3--3-3/6-6--6-7--7-7-------|
 
E|------------------------------------|
B|------------------------------------|
G|------------------------------------|
D|------------------------------------|
A|------------------------------------|
E|-----2--2-0h2--2--------------------|
 
[Chorus]
 
E|------------------------------------|
B|------------------------------------|
G|------------------------------------|
D|---7-----7-5------------------------|
A|-7----7-------5--7-4--0-------------|
E|------------------------------------|
 
E|------------------------------------|
B|------------------------------------|
G|------------------------------------|
D|---7-----7-5------------------------|
A|-7----7-------5--7----------0-------|
E|-------------------10---9-9--9--9/11|
 
(Pause For Verse 2)
 
[Bridge]
 
E|---------------------------------|
B|---------------------------------|
G|---------------------------------|
D|---------------------------------| (x4)
A|---------------------------------|
E|-2--2-3--3-3/6-6--6-7--7-7-------|
 
E|------------------------------------|
B|------------------------------------|
G|------------------------------------|
D|------------------------------------|
A|------------------------------------|
E|-----2--2-0h2--2--------------------|
 
(Chorus)
 
E|------------------------------------|
B|------------------------------------|
G|------------------------------------|
D|---7-----7-5------------------------|
A|-7----7-------5--7-4--0-------------|
E|------------------------------------|
 
E|------------------------------------|
B|------------------------------------|
G|------------------------------------|
D|---7-----7-5------------------------|
A|-7----7-------5--7-3---3--3--3-3-2--|
E|------------------------------------|
 
E|------------------------------------|
B|------------------------------------|
G|------------------------------------|
D|---7-----7-5------------------------|
A|-7----7-------5--7-4--0-------------|
E|------------------------------------|
 
E|------------------------------------|
B|------------------------------------|
G|------------------------------------|
D|---7-----7-5------------------------|
A|-7----7-------5--7----------0-------|
E|-------------------10---9-9--9--9/11|
 
[Outro]
            
Submit corrections

↑ Back to top | Tablatures and chords for acoustic guitar and electric guitar, ukulele, drums are parodies/interpretations of the original songs. You may use it for private study, scholarship, research or language learning purposes only