» » »

That Handsome Devil - Echo Chamber Tabs

Artists:  A B C D E F G H I J K L M N O P Q R S T U V W X Y Z # 

Echo Chamber Tabs

(ver. 1) Click to play this song!
That Handsome Devil
 Rating:
4.4/5 (8 votes)

 Echo Chamber lessons Tabs too difficult? Try these video lessons and learn fast
 
                [Verse]
e|---------------------------------------------------------------------------------|
B|---------------------------------------------------------------------------------|
G|---7-----------8-------7------------8-------7----------7-----5---7---8~~~~~---7--|
D|---7-------------8-------7~~~~--------8-------7~~~~---------------------------7--|
A|-5---------5/6-----6/5----------5/6-----6/5----------5---5/3---5---6----------5--|
E|---------------------------------------------------------------------------------|
'What happened...'           'And how did it...'               'Did it happen...'

[Chorus]
e|--------------------------------------------------------------------------------------------------~~
B|--------------------------------------------------------------------------------------------------~~
G|-----5-5----5p3-------------------7-7----7p5-------------------5-5----5p3---------------7~~~5~~~7-~~
D|-----5-5--------5-3---------------7-7--------7-5---------------5-5--------5-3-----------7~~~5~~~7-~~
A|-3------------------6p5-3-5-6-5------------------8p6-3-5-6-3------------------6p5-3-5-6-5~~~3~~~5-~~
E|--------------------------------------------------------------------------------------------------~~

[Bridge]
e|---------------------------------------------------------------------------------|
B|---------------------------------------------------------------------------------|
G|---------------------------------------------------------------------------------|
D|---5---------6-------5-----------6-------5-----5------3---5---7------------------|
A|---5-----------6-------5-----------6-------5------------------7------------------|
E|-3-------3/4-----4/3---------3/4-----4/3-----3----3/1---3---5--------------------|

[Outro]
e|--------------------------|
B|--------------------------|
G|--------------------------|
D|-5-------3-5-------3-5-6--|
A|-5-------3-5-------3-5-6--|
E|-3-------1-3-------1-3-4--|            
Submit corrections


        Echo Chamber lessons Hard to play? Try these video lessons and learn fast Echo Chamber lessons
        
↑ Back to top | Tablatures and chords for acoustic guitar and electric guitar, ukulele, drums are parodies/interpretations of the original songs. You may use it for private study, scholarship, research or language learning purposes only