Home » T » Texas In July »

Texas In July - Hook Line And Sinner Bass

Artists:  A B C D E F G H I J K L M N O P Q R S T U V W X Y Z # 

Hook Line And Sinner Bass

(Version #1)
Texas In July

Ok so this is my first tab.  I had some help from my friend but I think this is right.  
been working on this for a couple days so enjoy. :)

Tuning: Drop C  (C,G,C,F)

Intro (come in with singer)
F|----------------------------|---------------------------------------------|
C|----------------------------|---------------------------------------------|
G|----------------------------|--------------------5----5-------------------|
C|---3p00--003p00-----0----0--|---3p00--003p00------------------------------|

Verse 1
F|--------------------------------------------------------------------------|
C|--------------------------------------------------------------------------|
G|-------------------------------------------------3---5---3----------------|
C|---3p00--003p00-----003p00--0000003p00--003p00----------------------------|

Verse 2
F|--------------------------------------------------------------------------|
C|--------------------------------------------------------------------------|
G|--------------------------------------------------------------------------|
C|---0-0000000000000-8-8888888888888-5-5555555555555-3-333337-77777---------|

Transition
F|-----------|
C|-----------|
G|-----------|
C|---00-0-00-|

First breakdown
F|--------------------------------------------------------------------------|
C|--------------------------------------------------------------------------|
G|--------------------------------------------------------------------------|
C|---00-0-00-----0000---0000---00-0-00--000-000-------[00000000]------------|
                                                    1st and 3rd only

(After guitar transition)
F|----------------7---------------------------------------------------------|
C|-------------7-----7h8p7---(10)-----(10)--8-------------------------------|
G|-----5----8-----------------------------------8---------------------------|
C|----------------------------------------------------0-8-7-5---------------|

(Transition)
F|--------------------|
C|--------------------|
G|--------------------|
C|-5-8-7-5-------1~~~-|

(Breakdown 2)
F|--------------------------------------------------------------------------|
C|--------------------------------------------------------------------------|
G|--------------------------------------------------------------------------|
C|---5-8-7-5----0-5-8-7-5----4---------5-8-7-5-7-5-1----4-------------------|

(Breakdown)- play til end
F|--------------------------------------------------------------------------|
C|--------------------------------------------------------------------------|
G|--------------------------------------------------------------------------|
C|---00000--00000000----0000----00-0--000---000000---0-000---0000-----------|

Ending notes
F|-----------------------|
C|-----------------------|
G|----5------------------|
C|------------0~~~~~~~~--|


| /  slide up
| \  slide down
| h  hammer-on
| p  pull-off
| ~  vibrato
| +  harmonic
| x  Mute note
=============================================================================
            
Submit corrections

↑ Back to top | Tablatures and chords for acoustic guitar and electric guitar, ukulele, drums are parodies/interpretations of the original songs. You may use it for private study, scholarship, research or language learning purposes only