Home » T » Tesla »

Tesla - Getting Better Tabs

Artists:  A B C D E F G H I J K L M N O P Q R S T U V W X Y Z # 

Getting Better Tabs

(ver. 1) Click to play this song!
Tesla
Acoustic guitar intro.
 
 
 
     E  E  E  E  S  S  E  E  E     E  E  E  E  S  S  E  E  E
E||--------------2h-3p-2--------|-----------------------------|
B||--------3--------------3-----|--------------2h-3p-2--------|
G||-----2--------------------2--|--------2--------------2-----|
D||--0--------0-----------------|-----2-----------------------|
A||-----------------------------|--0--------0--------------0--|
E||-----------------------------|-----------------------------|
 
 
  E  E  E  E  E  E  E  E     E  E  E  E  Q    Q       E  E  E  E  E  E  E  E
--------------------------|-------------------0----|--------------------------|
-----------3-----------2--|-------------------0----|--------------0-----------|
--------4-----------2-----|------------------------|-----------0-----0--------|
-----4-----------2--------|--------2---------------|--------0-----------0-----|
--2-----------0-----------|-----2--------2---------|-----2--------------------|
--------------------------|--4--------4--0---------|--3--------------------3--|
 
 
  E  E  E  E  S  S  E  E  E     E  E  E  E  S  S  E  E  E
-----------------------------|--------------2h-3p-2--------|
--------------2h-3p-2--------|--------3--------------3-----|
--------2--------------2-----|-----2-----2--------------2--|
-----2--------------------2--|--0--------------------------|
--0--------0-----------------|-----------------------------|
-----------------------------|-----------------------------|
 
 
  ^
  Q    E  E  S  S  E  E  E     E  E  E  E  S  S  E  E  E
-------------2h-3p-2--------|--------------2h-3p-2--------|
--3----3--------------3-----|--------3--------------3-----|
--2-------2--------------2--|-----2-----2--------------2--|
--0-------------------------|--0--------------------------|
----------------------------|-----------------------------|
----------------------------|-----------------------------|
 
 
  E  E  E  E  S  S  E  E  E     E  E  E  E  E  E  E  E
-----------------------------|--------------------------|
--------------2h-3p-2--------|-----------3-----------2--|
--------2--------------2-----|--------4-----------2-----|
-----2-----------------------|-----4-----------2--------|
--0--------0--------------0--|--2-----------0-----------|
-----------------------------|--------------------------|
 
 
  E  E  E  E  Q    Q       E  E  E  E  E  E  E  E
-------------------0----|--------------------------|
-------------------0----|--------------0-----------|
------------------------|-----------0-----0--------|
--------2---------------|--------0-----------0-----|
-----2--------2---------|-----2--------------------|
--4--------4--0---------|--3--------------------3--|
 
 
  E  E  E  E  S  S  E  E  E     E  E  E  E  S  S  E  E  E
-----------------------------|--------------2h-3p-2--------|
--------------2h-3p-2--------|--------3--------------3-----|
--------2--------------2-----|-----2-----2--------------2--|
-----2--------------------2--|--0--------------------------|
--0--------0-----------------|-----------------------------|
-----------------------------|-----------------------------|
 
 
  E  E  E  E  E  E  E  E     E  E  E  E  S  S  E  E  E
--------------------------|--------------2h-3p-2--------|
-----------2-----------2--|--------3--------------3-----|
--------2-----------2-----|-----2-----2--------------2--|
-----2-----------2--------|--0--------------------------|
--0-----------4-----------|-----------------------------|
--------------------------|-----------------------------|
 
 
  E  E  E  E  S  S  E  E  E     E  E  E  E  E  E  E  E
-----------------------------|--------------------------|
--------------2h-3p-2--------|-----------3-----------2--|
--------2--------------2-----|--------4-----------2-----|
-----2-----------------------|-----4-----------2--------|
--0--------0--------------0--|--2-----------0-----------|
-----------------------------|--------------------------|
 
 
  E  E  E  E  Q    Q       E  E  E  E  E  E  E  E
-------------------0----|--------------------------|
-------------------0----|--------------0-----------|
------------------------|-----------0-----0--------|
--------2---------------|--------0-----------0-----|
-----2--------2---------|-----2--------------------|
--4--------4--0---------|--3--------------------3--|
 
 
  E  E  E  E  S  S  E  E  E     E  E  E  E  E  E  E  E
-----------------------------|--------------------------|
--------------2h-3p-2--------|--------------3-----------|
--------2--------------2-----|--------4--------4--------|
-----2--------------------2--|-----4--------------4-----|
--0--------0-----------------|--2--------2-----------2--|
-----------------------------|--------------------------|
 
 
  E  E  E  E  E  E  E  E     E  E  E  E  E  E  E  E
--------------------------|--------------------------|
--------------3-----------|--------------0-----------|
--------4--------4--------|-----------0-----0--------|
-----4--------------4-----|--------0-----------0-----|
--0--------0-----------0--|-----2--------------------|
--------------------------|--3--------------------3--|
 
 
  E  E  E  E  S  S  E  E  E     E  E  E  E  S  S  E  E  E
-----------------------------|--------------2h-3p-2--------|
--------------2h-3p-2--------|--------3--------------3-----|
--------2--------------2-----|-----2--------------------2--|
-----2--------------------2--|--0--------0-----------------|
--0--------0-----------------|-----------------------------|
-----------------------------|-----------------------------|
 
 
     ^
  E  E  H.              W
-----2--L------------|--L----------------|----|----|-------------------|----|
-----3--L------------|--L----------------|----|----|-------------------|----|
-----2--L------------|--L----------------|----|----|-------------------|----|
-----0--L------------|--L----------------|----|----|-------------------|----|
--0------------------|-------------------|----|----|-------------------|----|
---------------------|-------------------|----|----|-------------------|----|
 
 
 
---------------------------------------------------------------------------------
---------------------------------------------------------------------------------
 
Band comes in with electric guitars:
 
Guitar 1  Lead guitar
 
 
 
 
     Q    E  E  E  E  E  E     E  E  E  E  E  E     E  E  E  E  E  E  E  E
E||-------------------------|--------------------|--------------------------|
B||----------------3--------|--------------3-----|-----------------3--------|
G||--2-------0-----2-----2--|--2-----0-----2-----|--2--2-----0-----2-----2--|
D||--2-------0-----0-----2--|--2-----0-----0-----|--2--2-----0-----0-----2--|
A||--0-------x-----------0--|--0-----x-----------|--0--0-----x-----------0--|
E||----------3--------------|--------3-----------|-----------3--------------|
 
 
  E  E  E  S S S S E  E  E     E  E  E  E  E  E  E  E     E  E  E  E  E  E
----------------------------|--------------------------|--------------------|
----------------------------|-----------------3--------|--------------3-----|
--2-----2--x-x-x-x-2--2-----|--2--2-----0-----2-----2--|--2-----0-----2-----|
--2-----2--x-x-x-x-2--2-----|--2--2-----0-----0-----2--|--2-----0-----0-----|
--0-----0--x-x-x-x-0--0-----|--0--0-----x-----------0--|--0-----x-----------|
----------------------------|-----------3--------------|--------3-----------|
 
 
  E  E  E  E  E  E  E  E     E  S S E  S S S S E  E  E
--------------------------|-----------------------------|
-----------------3--------|-----------------------------|
--2--2-----0-----2-----2--|--2--x-x-2--x-x-x-x-2--2-----|
--2--2-----0-----0-----2--|--2--x-x-2--x-x-x-x-2--2-----|
--0--0-----x-----------0--|--0--x-x-0--x-x-x-x-0--0-----|
-----------3--------------|-----------------------------|
 
 
  E  E  E  E  E  E  E  E     E  E  E  E  E  E     E  E  E  E  E  E  E  E
--------------------------|--------------------|--------------------------|
-----------------3--------|--------------3-----|-----------------3--------|
--2--2-----0-----2-----2--|--2-----0-----2-----|--2--2-----0-----2-----2--|
--2--2-----0-----0-----2--|--2-----0-----0-----|--2--2-----0-----0-----2--|
--0--0-----x-----------0--|--0-----x-----------|--0--0-----x-----------0--|
-----------3--------------|--------3-----------|-----------3--------------|
 
 
  E  E  E  E  E  E  E  E     E  E  E  E  E  E  E  E     E  E  E  E  E  E
--------------------------|--------------------------|--------------------|
--------------------------|-----------------3--------|--------------3-----|
--2-----2-----2--2--2-----|--2--2-----0-----2-----2--|--2-----0-----2-----|
--2-----2-----2--2--2-----|--2--2-----0-----0-----2--|--2-----0-----0-----|
--0-----0-----0--0--0-----|--0--0-----x-----------0--|--0-----x-----------|
--------------------------|-----------3--------------|--------3-----------|
 
 
  E  E  E  E  E  E  E  E     E  S S Q    E  E  E  E     Q.     Q    E  Q
--------------------------|--------------------------|----------------------|
-----------------3--------|--------------------------|---------3----3-------|
--2--2-----0-----2-----2--|--2--x-x-2----2--2--2--2--|--0------2----2--4----|
--2--2-----0-----0-----2--|--2--x-x-2----2--2--2--2--|--0------0----0--4----|
--0--0-----x-----------0--|--0--x-x-0----0--0--0--0--|--x--------------2----|
-----------3--------------|--------------------------|--3-------------------|
 
 
  E  E  E  E  Q    Q       Q.     Q    E  Q       E  E  E  E  S S E  Q
------------------------|----------------------|--------------------------|
------------------------|---------3----3-------|--------------------------|
--L--2--2-----2----2----|--0------2----2--4----|--L--2--2-----x-x-2--2----|
--L--2--2-----2----2----|--0------0----0--4----|--L--2--2-----x-x-2--2----|
--L--0--0-----0----0----|--x--------------2----|--L--0--0-----x-x-0--0----|
------------------------|--3-------------------|--------------------------|
 
 
  Q.     Q    E  Q       E  E  E  E  Q    Q       Q.     Q.      Q
----------------------|------------------------|-----------------------|
---------3----3-------|------------------------|---------3-------------|
--0------2----2--4----|--L--2--2-----2----2----|--0------2-------------|
--0------0----0--4----|--L--2--2-----2----2----|--0------0-------------|
--x--------------2----|--L--0--0-----0----0----|--x--------------------|
--3-------------------|------------------------|--3-------------12\----|
 
 
  E  E  E  E  E  E  E  E     E  E  E  E  E  E     E  E  E  E  E  E  E  E
--------------------------|--------------------|--------------------------|
-----------------3--------|--------------3-----|-----------------3--------|
--2--2-----0-----2-----2--|--2-----0-----2-----|--2--2-----0-----2-----2--|
--2--2-----0-----0-----2--|--2-----0-----0-----|--2--2-----0-----0-----2--|
--0--0-----x-----------0--|--0-----x-----------|--0--0-----x-----------0--|
-----------3--------------|--------3-----------|-----------3--------------|
 
 
  E  S S E  S S S S E  E  E     E  E  E  E  E  E  E  E     E  E  E  E  E  E
-----------------------------|--------------------------|--------------------|
-----------------------------|-----------------3--------|--------------3-----|
--2--x-x-2--x-x-x-x-2--2-----|--2--2-----0-----2-----2--|--2-----0-----2-----|
--2--x-x-2--x-x-x-x-2--2-----|--2--2-----0-----0-----2--|--2-----0-----0-----|
--0--x-x-0--x-x-x-x-0--0-----|--0--0-----x-----------0--|--0-----x-----------|
-----------------------------|-----------3--------------|--------3-----------|
 
 
  E  E  E  E  E  E  E  E     E  E  E  S S S S E  E  E
--------------------------|----------------------------|
-----------------3--------|----------------------------|
--2--2-----0-----2-----2--|--2-----2--x-x-x-x-2--2-----|
--2--2-----0-----0-----2--|--2-----2--x-x-x-x-2--2-----|
--0--0-----x-----------0--|--0-----0--x-x-x-x-0--0-----|
-----------3--------------|----------------------------|
 
 
  E  E  E  E  E  E  E  E     E  E  E  E  E  E     E  E  E  E  E  E  E  E
--------------------------|--------------------|--------------------------|
-----------------3--------|--------------3-----|-----------------3--------|
--2--2-----0-----2-----2--|--2-----0-----2-----|--2--2-----0-----2-----2--|
--2--2-----0-----0-----2--|--2-----0-----0-----|--2--2-----0-----0-----2--|
--0--0-----x-----------0--|--0-----x-----------|--0--0-----x-----------0--|
-----------3--------------|--------3-----------|-----------3--------------|
 
 
  E  E  Q    E  E  E  E     Q.     Q    E  Q       E  E  E  E  Q    Q
-------------------------|----------------------|------------------------|
-------------------------|---------3----3-------|------------------------|
--2-----2----2--2--2--2--|--0------2----2--4----|--L--2--2-----2----2----|
--2-----2----2--2--2--2--|--0------0----0--4----|--L--2--2-----2----2----|
--0-----0----0--0--0--0--|--x--------------2----|--L--0--0-----0----0----|
-------------------------|--3-------------------|------------------------|
 
 
  Q.     Q    E  Q       E  E  E  E  S S E  Q       Q.     Q    E  Q
----------------------|--------------------------|----------------------|
---------3----3-------|--------------------------|---------3----3-------|
--0------2----2--4----|--L--2--2-----x-x-2--2----|--0------2----2--4----|
--0------0----0--4----|--L--2--2-----x-x-2--2----|--0------0----0--4----|
--x--------------2----|--L--0--0-----x-x-0--0----|--x--------------2----|
--3-------------------|--------------------------|--3-------------------|
 
 
  E  E  E  E  Q    Q       Q.     Q.      Q        E   E  E  E   E  E  E   E
------------------------|-----------------------|------5--5------5--5------5--|
------------------------|---------3-------------|------5--5------5--5------5--|
--L--2--2-----2----2----|--0------2-------------|--7b--------7b--------7b-----|
--L--2--2-----2----2----|--0------0-------------|-----------------------------|
--L--0--0-----0----0----|--x--------------------|-----------------------------|
------------------------|--3-------------12\----|-----------------------------|
 
 
                                                    PM PM PM PM
  E  S S S  S S S S S S  S    S S S S S  S   Q.     S  S  S  S
--5------------------------|------------------------------------|
--5------------------------|------------------------------------|
-----7-7-7p-6---7-7-7-7p-6-|----7-7-7-7p-6----------------------|
--------------7------------|--7------------7------0--5--0--4--|
---------------------------|------------------------------------|
---------------------------|------------------------------------|
 
 
  PM PM PM PM PM PM PM
  S  S  S  S  S  S  S  E    S E   Q
----------------------------------------|
----------------------------------------|
----------------------------------------|
--0--2----------------------------------|
--------0--5--0--4--0--2br--0-L---------|
---------------------------------12\----|
 
 
   S   S  S  S  S  S  S   S  S  S  S  S  S   S  S  S
-----------------------------------------------------|
--12s-14-14-14-14-14-12s-14-14-14-14-14-12s-14-14-14-|
--12s-14-14-14-14-14-12s-14-14-14-14-14-12s-14-14-14-|
-----------------------------------------------------|
-----------------------------------------------------|
-----------------------------------------------------|
 
 
   S   S  S  S  S   S  S   S  S  S  S   S     Q      H           Q
--12s-14-14-14-12s-14-12s-14-14-14-12s-14-|--19b----19b~--------19br----|
------------------------------------------|-----------------------------|
--12s-14-14-14-12s-14-12s-14-14-14-12s-14-|-----------------------------|
------------------------------------------|-----------------------------|
------------------------------------------|-----------------------------|
------------------------------------------|-----------------------------|
 
 
  E   S   S  S   S  S   S  H            Q.      Q.     Q
--L--17h-19-17h-19-17h-19-19b--------|-----------------------|
-------------------------------------|--7b------7------------|
-------------------------------------|-----------------9b----|
-------------------------------------|-----------------------|
-------------------------------------|-----------------------|
-------------------------------------|-----------------------|
 
 
  Q    H         E   E     Q.      Q.     Q        Q     E  E   E   E  Q
------------------------|-----------------------|---------------------------|
------------------------|--7b------7------------|---------------------------|
--L----9~--------9--11--|-----------------9b----|--L----11--9---------------|
------------------------|-----------------------|--------------12--11--9----|
------------------------|-----------------------|---------------------------|
------------------------|-----------------------|---------------------------|
 
 
  Q.      Q.     Q        Q    H         E  E     E  E  E  E  E   E  E   E
-----------------------|-----------------------|----------------------------|
--7b------7------------|--------------------7--|--8-------------------------|
-----------------9b----|--L----9~--------9-----|-----7-----7----------------|
-----------------------|-----------------------|--------9-----9------9------|
-----------------------|-----------------------|-----------------10-----10--|
-----------------------|-----------------------|----------------------------|
 
 
   E   E   E  E   H            E  E  E  E  E  E  E  E     E  E  E  E  E  E
----------------------------|--------------------------|--------------------|
----------------------------|-----------------3--------|--------------3-----|
----------------------------|--2--2-----0-----2-----2--|--2-----0-----2-----|
----------------------------|--2--2-----0-----0-----2--|--2-----0-----0-----|
------10---------12\--------|--0--0-----x-----------0--|--0-----x-----------|
--10------10--7--12\--------|-----------3--------------|--------3-----------|
 
 
  E  E  E  E  E  E  E  E     E  E  E  E  S S E  E  E
--------------------------|---------------------------|
-----------------3--------|---------------------------|
--2--2-----0-----2-----2--|--2-----2-----x-x-2--2-----|
--2--2-----0-----0-----2--|--2-----2-----x-x-2--2-----|
--0--0-----x-----------0--|--0-----0-----x-x-0--0-----|
-----------3--------------|---------------------------|
 
 
  E  E  E  E  E  E  E  E     E  E  E  E  E  E     E  E  E  E  E  E  E  E
--------------------------|--------------------|--------------------------|
-----------------3--------|--------------3-----|-----------------3--------|
--2--2-----0-----2-----2--|--2-----0-----2-----|--2--2-----0-----2-----2--|
--2--2-----0-----0-----2--|--2-----0-----0-----|--2--2-----0-----0-----2--|
--0--0-----x-----------0--|--0-----x-----------|--0--0-----x-----------0--|
-----------3--------------|--------3-----------|-----------3--------------|
 
 
  E  E  E  E  E  E     E  E  E  E  E  E  E  E     E  E  E  E  E  E
--------------------|--------------------------|--------------------|
--------------3-----|-----------------3--------|--------------3-----|
--2-----0-----2-----|--2--2-----0-----2-----2--|--2-----0-----2-----|
--2-----0-----0-----|--2--2-----0-----0-----2--|--2-----0-----0-----|
--0-----x-----------|--0--0-----x-----------0--|--0-----x-----------|
--------3-----------|-----------3--------------|--------3-----------|
 
 
  E  E  E  E  E  E  E  E     E  E  E  E  E  E     E  E  E  E  E  E  E  E
--------------------------|--------------------|--------------------------|
-----------------3--------|--------------3-----|-----------------3--------|
--2--2-----0-----2-----2--|--2-----0-----2-----|--2--2-----0-----2-----2--|
--2--2-----0-----0-----2--|--2-----0-----0-----|--2--2-----0-----0-----2--|
--0--0-----x-----------0--|--0-----x-----------|--0--0-----x-----------0--|
-----------3--------------|--------3-----------|-----------3--------------|
 
 
  E  E  E  E  E  E     E  E  E  E  E  E  E  E     E  E  H.
--------------------|--------------------------|---------------------||
--------------3-----|-----------------3--------|---------------------||
--2-----0-----2-----|--2--2-----0-----2-----2--|--2------------------||
--2-----0-----0-----|--2--2-----0-----0-----2--|--2------------------||
--0-----x-----------|--0--0-----x-----------0--|--0------------------||
--------3-----------|-----------3--------------|---------------------||
 
 
 
---------------------------------------------------------------------------------
---------------------------------------------------------------------------------
 
 
Guitar 2 - Rhythm
 
 
 
     W                   Q    E  E  E  E     E  E  E  E  E  E  E  E
E||-------------------|-------------------|--------------------------|
B||-------------------|-------------3-----|-----------------3--------|
G||-------------------|-------0-----2-----|--2--2-----0-----2-----2--|
D||-------------------|-------0-----0-----|--2--2-----0-----0-----2--|
A||-------------------|-------x-----------|--0--0-----x-----------0--|
E||-------------------|-------3-----------|-----------3--------------|
 
 
  E  E  E  E  E  E  E  E     E  E  E  E  E  E  E  E     E  E  E  E  E  E
--------------------------|--------------------------|--------------------|
--------------------------|-----------------3--------|--------------3-----|
--2-----2-----2-----2-----|--2--2-----0-----2-----2--|--2-----0-----2-----|
--2-----2-----2-----2-----|--2--2-----0-----0-----2--|--2-----0-----0-----|
--0-----0-----0-----0-----|--0--0-----x-----------0--|--0-----x-----------|
--------------------------|-----------3--------------|--------3-----------|
 
 
  E  E  E  E  E  E  E  E     E  E  E  E  E  E  E  E
--------------------------|--------------------------|
-----------------3--------|--------------------------|
--2--2-----0-----2-----2--|--2-----2-----2-----2-----|
--2--2-----0-----0-----2--|--2-----2-----2-----2-----|
--0--0-----x-----------0--|--0-----0-----0-----0-----|
-----------3--------------|--------------------------|
 
 
  E  E  E  E  E  E  E  E     E  E  E  E  E  E     E  E  E  E  E  E  E  E
--------------------------|--------------------|--------------------------|
-----------------3--------|--------------3-----|-----------------3--------|
--2--2-----0-----2-----2--|--2-----0-----2-----|--2--2-----0-----2-----2--|
--2--2-----0-----0-----2--|--2-----0-----0-----|--2--2-----0-----0-----2--|
--0--0-----x-----------0--|--0-----x-----------|--0--0-----x-----------0--|
-----------3--------------|--------3-----------|-----------3--------------|
 
 
  E  E  E  E  E  E  E  E     E  E  E  E  E  E  E  E     E  E  E  E  E  E
--------------------------|--------------------------|--------------------|
--------------------------|-----------------3--------|--------------3-----|
--2-----2-----2-----2-----|--2--2-----0-----2-----2--|--2-----0-----2-----|
--2-----2-----2-----2-----|--2--2-----0-----0-----2--|--2-----0-----0-----|
--0-----0-----0-----0-----|--0--0-----x-----------0--|--0-----x-----------|
--------------------------|-----------3--------------|--------3-----------|
 
 
  E  E  E  E  E  E  E  E     W                   Q.     Q    E  Q
--------------------------|-------------------|----------------------|
-----------------3--------|-------------------|---------3----3-------|
--2--2-----0-----2-----2--|--2----------------|--0------2----2--4----|
--2--2-----0-----0-----2--|--2----------------|--0------0----0--4----|
--0--0-----x-----------0--|--0----------------|--x--------------2----|
-----------3--------------|-------------------|--3-------------------|
 
 
  E  E  E  E  Q    Q       Q.     Q    E  Q       E  E  E  E  E  E  Q
------------------------|----------------------|-------------------------|
------------------------|---------3----3-------|-------------------------|
--L--2--2-----2----2----|--0------2----2--4----|--L--2--2-----2--2--2----|
--L--2--2-----2----2----|--0------0----0--4----|--L--2--2-----2--2--2----|
--L--0--0-----0----0----|--x--------------2----|--L--0--0-----0--0--0----|
------------------------|--3-------------------|-------------------------|
 
 
  Q.     Q    E  Q       E  E  E  E  Q    Q       Q.     Q.      Q
----------------------|------------------------|-----------------------|
---------3----3-------|------------------------|---------3-------------|
--0------2----2--4----|--L--2--2-----2----2----|--0------2-------------|
--0------0----0--4----|--L--2--2-----2----2----|--0------0-------------|
--x--------------2----|--L--0--0-----0----0----|--x--------------------|
--3-------------------|------------------------|--3-------------12\----|
 
 
  E  E  E  E  E  E  E  E     E  E  E  E  E  E     E  E  E  E  E  E  E  E
--------------------------|--------------------|--------------------------|
-----------------3--------|--------------3-----|-----------------3--------|
--2--2-----0-----2-----2--|--2-----0-----2-----|--2--2-----0-----2-----2--|
--2--2-----0-----0-----2--|--2-----0-----0-----|--2--2-----0-----0-----2--|
--0--0-----x-----------0--|--0-----x-----------|--0--0-----x-----------0--|
-----------3--------------|--------3-----------|-----------3--------------|
 
 
  E  E  E  E  E  E  E  E     E  E  E  E  E  E  E  E     E  E  E  E  E  E
--------------------------|--------------------------|--------------------|
--------------------------|-----------------3--------|--------------3-----|
--2-----2-----2-----2-----|--2--2-----0-----2-----2--|--2-----0-----2-----|
--2-----2-----2-----2-----|--2--2-----0-----0-----2--|--2-----0-----0-----|
--0-----0-----0-----0-----|--0--0-----x-----------0--|--0-----x-----------|
--------------------------|-----------3--------------|--------3-----------|
 
 
  E  E  E  E  E  E  E  E     E  E  E  E  E  E  E  E
--------------------------|--------------------------|
-----------------3--------|--------------------------|
--2--2-----0-----2-----2--|--2-----2-----2-----2-----|
--2--2-----0-----0-----2--|--2-----2-----2-----2-----|
--0--0-----x-----------0--|--0-----0-----0-----0-----|
-----------3--------------|--------------------------|
 
 
  E  E  E  E  E  E  E  E     E  E  E  E  E  E     E  E  E  E  E  E  E  E
--------------------------|--------------------|--------------------------|
-----------------3--------|--------------3-----|-----------------3--------|
--2--2-----0-----2-----2--|--2-----0-----2-----|--2--2-----0-----2-----2--|
--2--2-----0-----0-----2--|--2-----0-----0-----|--2--2-----0-----0-----2--|
--0--0-----x-----------0--|--0-----x-----------|--0--0-----x-----------0--|
-----------3--------------|--------3-----------|-----------3--------------|
 
 
  W                   Q.     Q    E  Q       E  E  E  E  Q    Q
-------------------|----------------------|------------------------|
-------------------|---------3----3-------|------------------------|
--2----------------|--0------2----2--4----|--L--2--2-----2----2----|
--2----------------|--0------0----0--4----|--L--2--2-----2----2----|
--0----------------|--x--------------2----|--L--0--0-----0----0----|
-------------------|--3-------------------|------------------------|
 
 
  Q.     Q    E  Q       E  E  E  E  E  E  Q       Q.     Q    E  Q
----------------------|-------------------------|----------------------|
---------3----3-------|-------------------------|---------3----3-------|
--0------2----2--4----|--L--2--2-----2--2--2----|--0------2----2--4----|
--0------0----0--4----|--L--2--2-----2--2--2----|--0------0----0--4----|
--x--------------2----|--L--0--0-----0--0--0----|--x--------------2----|
--3-------------------|-------------------------|--3-------------------|
 
 
  E  E  E  E  Q    Q       Q.     Q.      Q        E  E  E  E  E  E  E  E
------------------------|-----------------------|--------------------------|
------------------------|---------3-------------|-----------------3--------|
--L--2--2-----2----2----|--0------2-------------|--2--2-----0-----2-----2--|
--L--2--2-----2----2----|--0------0-------------|--2--2-----0-----0-----2--|
--L--0--0-----0----0----|--x--------------------|--0--0-----x-----------0--|
------------------------|--3-------------12\----|-----------3--------------|
 
 
  E  E  E  E  E  E     E  E  E  E  E  E  E  E     E  E  E  E  E  E  E  E
--------------------|--------------------------|--------------------------|
--------------3-----|-----------------3--------|--------------------------|
--2-----0-----2-----|--2--2-----0-----2-----2--|--2-----2-----2-----2-----|
--2-----0-----0-----|--2--2-----0-----0-----2--|--2-----2-----2-----2-----|
--0-----x-----------|--0--0-----x-----------0--|--0-----0-----0-----0-----|
--------3-----------|-----------3--------------|--------------------------|
 
 
  E  E  E  E  E  E  E  E     E  E  E  E  E  E     E  E  E  E  E  E  E  E
--------------------------|--------------------|--------------------------|
-----------------3--------|--------------3-----|-----------------3--------|
--2--2-----0-----2-----2--|--2-----0-----2-----|--2--2-----0-----2-----2--|
--2--2-----0-----0-----2--|--2-----0-----0-----|--2--2-----0-----0-----2--|
--0--0-----x-----------0--|--0-----x-----------|--0--0-----x-----------0--|
-----------3--------------|--------3-----------|-----------3--------------|
 
 
  W                   Q.     Q    E  Q       E  E  E  E  Q    Q
-------------------|----------------------|------------------------|
-------------------|---------3----3-------|------------------------|
--2----------------|--0------2----2--4----|--L--2--2-----2----2----|
--2----------------|--0------0----0--4----|--L--2--2-----2----2----|
--0----------------|--x--------------2----|--L--0--0-----0----0----|
-------------------|--3-------------------|------------------------|
 
 
  Q.     Q    E  Q       E  E  E  E  E  E  Q       Q.     Q    E  Q
----------------------|-------------------------|----------------------|
---------3----3-------|-------------------------|---------3----3-------|
--0------2----2--4----|--L--2--2-----2--2--2----|--0------2----2--4----|
--0------0----0--4----|--L--2--2-----2--2--2----|--0------0----0--4----|
--x--------------2----|--L--0--0-----0--0--0----|--x--------------2----|
--3-------------------|-------------------------|--3-------------------|
 
 
  E  E  E  E  Q    Q       E  E  E  E  E  E  E  E     E  E  E  E  E  E  E  E
------------------------|--------------------------|--------------------------|
------------------------|--------------------------|--------------------------|
--L--2--2-----2----2----|--0--0--0--0--0--0--0--0--|--0--0--0--0--0--0--0--0--|
--L--2--2-----2----2----|--0--0--0--0--0--0--0--0--|--0--0--0--0--0--0--0--0--|
--L--0--0-----0----0----|--x--x--x--x--x--x--x--x--|--x--x--x--x--x--x--x--x--|
------------------------|--3--3--3--3--3--3--3--3--|--3--3--3--3--3--3--3--3--|
 
 
  E  E  E  E  E  E  E  E     E  E  E  E  E  E     E  E  E  E  E  E  E  E
--------------------------|--------------------|--------------------------|
-----------------3--------|--------------3-----|-----------------3--------|
--2--2-----0-----2-----2--|--2-----0-----2-----|--2--2-----0-----2-----2--|
--2--2-----0-----0-----2--|--2-----0-----0-----|--2--2-----0-----0-----2--|
--0--0-----x-----------0--|--0-----x-----------|--0--0-----x-----------0--|
-----------3--------------|--------3-----------|-----------3--------------|
 
 
  E  E  E  E  E  E  E  E     E  E  E  E  E  E  E  E     E  E  E  E  E  E
--------------------------|--------------------------|--------------------|
--------------------------|-----------------3--------|--------------3-----|
--2-----2-----2-----2-----|--2--2-----0-----2-----2--|--2-----0-----2-----|
--2-----2-----2-----2-----|--2--2-----0-----0-----2--|--2-----0-----0-----|
--0-----0-----0-----0-----|--0--0-----x-----------0--|--0-----x-----------|
--------------------------|-----------3--------------|--------3-----------|
 
 
  E  E  E  E  E  E  E  E     E  E  E  E  E  E     E  E  E  E  E  E  E  E
--------------------------|--------------------|--------------------------|
-----------------3--------|--------------3-----|-----------------3--------|
--2--2-----0-----2-----2--|--2-----0-----2-----|--2--2-----0-----2-----2--|
--2--2-----0-----0-----2--|--2-----0-----0-----|--2--2-----0-----0-----2--|
--0--0-----x-----------0--|--0-----x-----------|--0--0-----x-----------0--|
-----------3--------------|--------3-----------|-----------3--------------|
 
 
  E  E  E  E  E  E     E  E  E  E  E  E  E  E     E  E  E  E  E  E
--------------------|--------------------------|--------------------|
--------------3-----|-----------------3--------|--------------3-----|
--2-----0-----2-----|--2--2-----0-----2-----2--|--2-----0-----2-----|
--2-----0-----0-----|--2--2-----0-----0-----2--|--2-----0-----0-----|
--0-----x-----------|--0--0-----x-----------0--|--0-----x-----------|
--------3-----------|-----------3--------------|--------3-----------|
 
 
  E  E  E  E  E  E  E  E     E  E  E  E  E  E     E  E  E  E  E  E  E  E
--------------------------|--------------------|--------------------------|
-----------------3--------|--------------3-----|-----------------3--------|
--2--2-----0-----2-----2--|--2-----0-----2-----|--2--2-----0-----2-----2--|
--2--2-----0-----0-----2--|--2-----0-----0-----|--2--2-----0-----0-----2--|
--0--0-----x-----------0--|--0-----x-----------|--0--0-----x-----------0--|
-----------3--------------|--------3-----------|-----------3--------------|
 
 
  E  E  H.
---------------------||
---------------------||
--2------------------||
--2------------------||
--0------------------||
---------------------||
            
Submit corrections

↑ Back to top | Tablatures and chords for acoustic guitar and electric guitar, ukulele, drums are parodies/interpretations of the original songs. You may use it for private study, scholarship, research or language learning purposes only