Home » T » Television »

Television - Torn Curtain Bass

Artists:  A B C D E F G H I J K L M N O P Q R S T U V W X Y Z # 

Torn Curtain Bass

(ver. 1) Click to play this song!
Television
 Rating:
4.3/5 (12 votes)
                [Intro]
G|---------------------------------|---------------------------------|
D|-----------------7~--------------|-3~--------------3~--2~----------|
A|---------------7-----7~----------|---------------3---------3~------|
E|-5~------5-7.------------8~------|---------0-1-3---------------1-3-|
   1 + + + 2 + + + 3 + + + 4 + + +   1 + + + 2 + + + 3 + + + 4 + + +
 
G|---------------------------------|
D|---------------------------------|
A|-5~------5-7-5-3-5~--3~--0~--7---|
E|-------------------------------8-|
   1 + + + 2 + + + 3 + + + 4 + + +  
 
[Verse 1] "Torn curtain ..."
G|---------------------------------|---------------------------------|
D|---------------------------------|---------------------------------|
A|---------------------------------|-5~------12--\-------5-/-12--10\-| (x3)
E|-5~------12--\-------5-/-12--10\-|---------------------------------|
   1 + + + 2 + + + 3 + + + 4 + + +   1 + + + 2 + + + 3 + + + 4 + + +
 
G|---------------------------------|---------------------------------|
D|---------------------------------|---------------------------------|
A|---------------------------------|-5~------12--\-------5-/-12--10/-|
E|-5~------12--\-------5-/-12--10\-|---------------------------------|
   1 + + + 2 + + + 3 + + + 4 + + +   1 + + + 2 + + + 3 + + + 4 + + +
 
G|---------------------------------|
D|---------------------------------|
A|---------------------2---3---5---|
E|-0---5---7---8---4---------------|
   1 + + + 2 + + + 3 + + + 4 + + +  
 
[Chorus 1] "Tears ..."
G|---------------------------------|---------------------------------|
D|---------4-------2---------------|-------------4-----------2-------|
A|-2---2-------5-----------2-------|---------4-------------------4---|
E|-----------------------------3---|-2---2-----------2---2-----------|
   1 + + + 2 + + + 3 + + + 4 + + +   1 + + + 2 + + + 3 + + + 4 + + +
 
G|---------------------------------|---------------------------------|
D|---------4-------2---2-----------|-------------4-----------2-------|
A|-2---2-------5-----------2-------|---------4-------------------4---|
E|-----------------------------3---|-2---2-----------2---2-----------|
   1 + + + 2 + + + 3 + + + 4 + + +   1 + + + 2 + + + 3 + + + 4 + + +
 
G|---------------------------------|---------------------------------|
D|---------4-------2---2-----------|-------------4-------------------|
A|-2---2-------5-----------2-------|---------4---------------5---4---| (x2)
E|-----------------------------3---|-2---2-----------2---2-----------|
   1 + + + 2 + + + 3 + + + 4 + + +   1 + + + 2 + + + 3 + + + 4 + + +
 
G|---------------------------------|---------------------------------|
D|-5~------------------------------|-2~------------------------------|
A|-----------------5~--------------|-----------------2~--------------|
E|---------------------------------|---------------------------------|
   1 + + + 2 + + + 3 + + + 4 + + +   1 + + + 2 + + + 3 + + + 4 + + +
 
G|---------------------------------|
D|-----------------3~--------------|
A|-3~------------------------------|
E|---------------------------0-1-3-|
   1 + + + 2 + + + 3 + + + 4 + + +  
 
[Interlude]
G|---------------------------------|---------------------------------|
D|-----------------7~--------------|-3~--------------3~--2~----------|
A|---------------7-----7~----------|---------------3---------3~------|
E|-5~------5-7-8-----------8~------|---------0-1-3---------------1-3-|
   1 + + + 2 + + + 3 + + + 4 + + +   1 + + + 2 + + + 3 + + + 4 + + +
 
G|---------------------------------|
D|---------------------------------|
A|-5~------5-7-5-3-5~--3~--0~--7---|
E|-------------------------------8-|
   1 + + + 2 + + + 3 + + + 4 + + +  
 
[Verse 2] "Torn curtain ..."
G|---------------------------------|---------------------------------|
D|---------------------------------|---------------------------------|
A|---------------------------------|-5~------12--\-------5-/-12--10\-| (x3)
E|-5~------12--\-------5-/-12--10\-|---------------------------------|
   1 + + + 2 + + + 3 + + + 4 + + +   1 + + + 2 + + + 3 + + + 4 + + +
 
G|---------------------------------|---------------------------------|
D|---------------------------------|---------------------------------|
A|---------------------------------|-5~------12--\-------5-/-12--10/-|
E|-5~------12--\-------5-/-12--10\-|---------------------------------|
   1 + + + 2 + + + 3 + + + 4 + + +   1 + + + 2 + + + 3 + + + 4 + + +
 
G|---------------------------------|
D|---------------------------------|
A|---------------------2---3---5---|
E|-0---5---7---8---4---------------|
   1 + + + 2 + + + 3 + + + 4 + + +  
 
[Chorus 2] "Tears ..."
G|---------------------------------|---------------------------------|
D|---------4-------2---------------|-------------4-----------2-------|
A|-2---2-------5-----------2-------|---------4-------------------4---|
E|-----------------------------3---|-2---2-----------2---2-----------|
   1 + + + 2 + + + 3 + + + 4 + + +   1 + + + 2 + + + 3 + + + 4 + + +
 
G|---------------------------------|---------------------------------|
D|---------4-------2---------------|-------------4-------------------|
A|-2---2-------5-----------2-------|---------4---------------5---4---|
E|-----------------------------3---|-2---2-----------2---2-----------|
   1 + + + 2 + + + 3 + + + 4 + + +   1 + + + 2 + + + 3 + + + 4 + + +
 
G|---------------------------------|---------------------------------|
D|---------4-------2---------------|-------------4-------------------|
A|-2---2-------5-----------2-----2-|---------4---------------5---4---|
E|-----------------------------3---|-2---2-----------2---2-----------|
   1 + + + 2 + + + 3 + + + 4 + + +   1 + + + 2 + + + 3 + + + 4 + + +
 
G|---------------------------------|---------------------------------|
D|---------4-------2---2-----------|-------------4-------------------|
A|-2---2-------5-----------2-----2-|---------4---------------5---4---|
E|-----------------------------3---|-2---2-----------2---2-----------|
   1 + + + 2 + + + 3 + + + 4 + + +   1 + + + 2 + + + 3 + + + 4 + + +
 
G|---------------------------------|---------------------------------|
D|-5~------------------------------|-2~------------------------------|
A|-----------------5~--------------|-----------------2~--------------|
E|---------------------------------|---------------------------------|
   1 + + + 2 + + + 3 + + + 4 + + +   1 + + + 2 + + + 3 + + + 4 + + +
 
G|---------------------------------|
D|-----------------3~----------/-\-|
A|-3~------------------------------|
E|---------------------------------|
   1 + + + 2 + + + 3 + + + 4 + + + 
 
[Solo]
G|---------------------------------|-------------------------5-------|
D|---------------------------------|-----------------3~----------3---|
A|-1~----------1-------------------|-2~----------2-------------------|
E|-----------------0-----------0---|---------------------------------|
   1 + + + 2 + + + 3 + + + 4 + + +   1 + + + 2 + + + 3 + + + 4 + + +
 
G|---------------------------------|---------------------------------|
D|-2-------/-------2-------/-------|---------3-------------------2---|
A|---------------------------------|-1-----------1-----------2-------|
E|-----0-------12\-----0-------12\-|-----------------0---------------|
   1 + + + 2 + + + 3 + + + 4 + + +   1 + + + 2 + + + 3 + + + 4 + + +
 
             (*)              (*)
G|---------4-----4---------5-----5-|---------------------------------|
D|-------4---4-4---3-----3---3-3---|-2-----------2-----------2-------|
A|-2-------------------------------|---------------------------------| (*) faster, listen carefully
E|---------------------------------|-----0-------------0-0-0-----0---|
   1 + + + 2 + + + 3 + + + 4 + + +   1 + + + 2 + + + 3 + + + 4 + + +
 
G|---------------------------------|
D|-3~----------3~------3~--3.2-----|
A|-----------------------------3---|
E|---------------------------------|
   1 + + + 2 + + + 3 + + + 4 + + +  
 
[Verse 3] "Torn curtain ..."
G|---------------------------------|---------------------------------|
D|---------------------------------|---------------------------------|
A|---------------------------------|-5~------12--\-------5-/-12--10\-|
E|-5~------12--\-------5-/-12--10\-|---------------------------------|
   1 + + + 2 + + + 3 + + + 4 + + +   1 + + + 2 + + + 3 + + + 4 + + +
 
G|---------------------------------|---------------------------------|
D|---------------------------------|---------------------------------|
A|---------------------------------|-5~------12--\-------5-/-12--10/-|
E|-5~------12--\-------5-/-12--10\-|---------------------------------|
   1 + + + 2 + + + 3 + + + 4 + + +   1 + + + 2 + + + 3 + + + 4 + + +
 
G|-----------------|
D|-----------------|
A|-----------------|
E|-0---5---7---8---|
   1 + + + 2 + + + 
 
[Chorus 3] "Tears ..."
G|---------------------------------|---------------------------------|
D|---------4-------2---------------|-------------4-----------2-------|
A|-2---2-------5-----------2-------|---------4-------------------4---|
E|-----------------------------3---|-2---2-----------2---2-----------|
   1 + + + 2 + + + 3 + + + 4 + + +   1 + + + 2 + + + 3 + + + 4 + + +
 
G|---------------------------------|---------------------------------|
D|---------4-------2---2-----------|-------------4-----------2-------|
A|-2---2-------5-----------2-------|---------4-------------------4---| (x2)
E|-----------------------------3---|-2---2-----------2---2-----------|
   1 + + + 2 + + + 3 + + + 4 + + +   1 + + + 2 + + + 3 + + + 4 + + +
 
G|---------------------------------|---------------------------------|
D|---------4-------2---2-----------|-------------4-------------------|
A|-2---2-------5-----------2-----2-|---------4---------------5---4---|
E|-----------------------------3---|-2---2-----------2---2-----------|
   1 + + + 2 + + + 3 + + + 4 + + +   1 + + + 2 + + + 3 + + + 4 + + +
 
G|---------------------------------|---------------------------------|
D|-5~------------------------------|-2~------------------------------|
A|-----------------5~--------------|-----------------2~--------------|
E|---------------------------------|---------------------------------|
   1 + + + 2 + + + 3 + + + 4 + + +   1 + + + 2 + + + 3 + + + 4 + + +
 
G|---------------------------------|
D|-----------------3~--------------|
A|-3~------------------------------|
E|---------------------------------|
   1 + + + 2 + + + 3 + + + 4 + + + 
 
[Outro]
G|---------------------------------|---------------------------------|
D|-----------------2---------------|-------------4-------------------|
A|-2---2-------5-----------2-------|---------4---------------5---4---|
E|-----------------------------3---|-2---2-----------2---2-----------|
   1 + + + 2 + + + 3 + + + 4 + + +   1 + + + 2 + + + 3 + + + 4 + + +
 
G|---------------------------------|---------------------------------|
D|---------4-------2---------------|-------------4-------------------|
A|-2---2-------5-----------2-------|---------4---------------5---4---| (x2)
E|-----------------------------3---|-2---2-----------2---2-----------|
   1 + + + 2 + + + 3 + + + 4 + + +   1 + + + 2 + + + 3 + + + 4 + + +
 
G|---------------------------------|---------------------------------|
D|---------4-------2---2-----------|-------------4-------------------|
A|-2---2-------5-----------2-----2-|-------------------------4/5-4---|
E|-----------------------------3---|-2---2---------------------------|
   1 + + + 2 + + + 3 + + + 4 + + +   1 + + + 2 + + + 3 + + + 4 + + +
 
G|---------------------------------|---------------------------------|
D|---------4-------2---2---2-------|-------------4-------------------|
A|-2---2-------5---------------2---|---------4-------------------1---|
E|---------------------------------|-2---2-----------1/2-2---4-------|
   1 + + + 2 + + + 3 + + + 4 + + +   1 + + + 2 + + + 3 + + + 4 + + +
 
G|---------------------------------|---------------------------------|
D|---------4-------2-------2-------|-------------4-------------------|
A|-2---2-------5---------------2---|---------4--------------/5---4---|
E|---------------------------------|-2---2-----------2---2-----------|
   1 + + + 2 + + + 3 + + + 4 + + +   1 + + + 2 + + + 3 + + + 4 + + +
 
                                                       (*)
G|---------------------------------|---------------------------------|
D|-----------------2---2-----------|---------4-----4-----4-----------|
A|-2---2-------5-----------2-----2-|-------------4---------------1---| one F# is really fast
E|-----------------------------3---|-2-----2---------2-2-----4-------|
   1 + + + 2 + + + 3 + + + 4 + + +   1 + + + 2 + + + 3 + + + 4 + + +
 
G|---------------------------------|---------------------------------|
D|---------4-------2---2-----------|-----------4-4-------------------|
A|-2---2-------5-----------2-----2-|---------4-------------------1---|
E|-----------------------------3---|-2-------------------2---4-------|
   1 + + + 2 + + + 3 + + + 4 + + +   1 + + + 2 + + + 3 + + + 4 + + +
 
G|---------------------------------|---------------------------------|
D|---------4-------2-------2-------|-------------4-------------------|
A|-2---2-------5---------------2---|---------4-------------------1---| (Fade)
E|---------------------------------|-2---2-----------2---2--/4-------|
   1 + + + 2 + + + 3 + + + 4 + + +   1 + + + 2 + + + 3 + + + 4 + + +
            
Submit corrections

↑ Back to top | Tablatures and chords for acoustic guitar and electric guitar, ukulele, drums are parodies/interpretations of the original songs. You may use it for private study, scholarship, research or language learning purposes only