Home » T » Tehosekoitin »

Tehosekoitin - Valonkantaja Tabs

Artists:  A B C D E F G H I J K L M N O P Q R S T U V W X Y Z # 

Valonkantaja Tabs

(ver. 1) Click to play this song!
Tehosekoitin
Tuning:EADGHe


Guitar 1
       Dsus2                             F
e|------------0--------------------------------------------------------------|
B|------------------3---------------------1-----------0----1-----------------|
G|-----------------------2---------------------2----------------2------------|
D|---0----------------------------3------------------------------------------|
A|---------------------------------------------------------------------------|
E|---------------------------------------------------------------------------|
        Am                                    G
e|---------------------------------------------------------------------------|
B|------------------0----1-----------------------3---------3-----------------|
G|----------------------------2-------------------------0-----0--------------|
D|----------2----------------------------------------------------------------|
A|---0-----------------------------------------------------------------------|
E|---------------------------------------3-----------------------------------|

Guitar 2
e|-----------------------------------------------------8h10---10-----10------|
B|---------------------------------------------------------------------------|
G|---------------------------------------------------------------------------|
D|---------------------------------------------------------------------------|
A|---------------------------------------------------------------------------|
E|---------------------------------------------------------------------------|

Guitar 1 palys the same again 3 times

On 3rd time:

Guitar 1
       Dsus2                             F
e|------------0--------------------------------------------------------------|
B|------------------3---------------------1-----------0----1-----------------|
G|-----------------------2---------------------2----------------2------------|
D|---0----------------------------3------------------------------------------|
A|---------------------------------------------------------------------------|
E|---------------------------------------------------------------------------|
        Am                                    G
e|----------------------------------------------------5--------3--------0----|
B|------------------0----1---------------------------------------------------|
G|----------------------------2----------------------------------------------|
D|----------2----------------------------------------------------------------|
A|---0-----------------------------------------------------------------------|
E|---------------------------------------3-----------------------------------|

Guitar 2 intro solo:

3x
e|--------8h10---10------12----10-----8h10-----10----------------------------|
B|---------------------------------------------------------------------------|
G|---------------------------------------------------------------------------|
D|---------------------------------------------------------------------------|
A|---------------------------------------------------------------------------|
E|---------------------------------------------------------------------------|

1x
e|-------13--13----12--12----10--10-----8---8h10----10-----------------------|
B|---------------------------------------------------------------------------|
G|---------------------------------------------------------------------------|
D|---------------------------------------------------------------------------|
A|---------------------------------------------------------------------------|
E|---------------------------------------------------------------------------|

3x
e|--------8h10---10------12----10-----8h10-----10----------------------------|
B|---------------------------------------------------------------------------|
G|---------------------------------------------------------------------------|
D|---------------------------------------------------------------------------|
A|---------------------------------------------------------------------------|
E|---------------------------------------------------------------------------|

1x
e|-------13--13----12--12----10--10-----8---8h10----10-----------------------|
B|---------------------------------------------------------------------------|
G|---------------------------------------------------------------------------|
D|---------------------------------------------------------------------------|
A|---------------------------------------------------------------------------|
E|---------------------------------------------------------------------------|            
Submit corrections

↑ Back to top | Tablatures and chords for acoustic guitar and electric guitar, ukulele, drums are parodies/interpretations of the original songs. You may use it for private study, scholarship, research or language learning purposes only