» » »

Tegan And Sara - Con Tabs

Artists:  A B C D E F G H I J K L M N O P Q R S T U V W X Y Z # 

Con Tabs

(ver. 3) Click to play this song!
Tegan And Sara
 Rating:
4/5 (21 vote)


 Con lessons Tabs too difficult? Try these video lessons and learn fast
 
                the con) Tegan is playing with a capo on the first fret. have fun and enjoy! and definitely 
Con when it comes out on July 24th!

The Con Tab by Tegan and Sara
Capo 1st
Drop A string to G

e|----------------------------------|
B|----------------------------------|
G|--0-------0------0-----0----0-----|
D|--0-------0------0-----0----0-----| x2
G|--12-x5--11-x2---0-x1--5x5--7-x3--|
E|--0-------0------0-----0----0-----|

e|----------------------------------|
B|----------------------------------|
G|--0-------0------0-----0----0-----|
D|--0-------0------0-----0----0-----|
G|--12-x5--11-x2---0-x1--5x5--7-x3--|
E|--0-------0------0-----0----0-----|
I listened in
Yes, I'm guilty of this you should know this
I broke down and wrote you back
Before you had a chance to
Forget, forgotten, I am moving past this
Giving notice
I have to go
Yes, I know the feeling know you're leaving

e|---------------------------|
B|---------------------------|
G|-0------0------0-----0-----|
D|-0------0------0-----0-----|
G|-12-x2--11-x2--5-x2--7-x3--|
E|-0------0------0-----0-----|
Calm down, I'm calling you to say
I'm capsized staring on the edge of safe
Calm down, I'm calling back to say
I'm home now, I'm coming around

e---------|
B---------|
G--0------|
D--0------|
G--5 x16--|
E--0------|
Coming around

e--x------|
B--x------|
G--0------|
D--0------|
G--7 x20--|
E--0------|
But nobody likes to
But I really like to cry

e--x-----x-----|
B--x-----x-----|
G--0-----0-----| x4
D--0-----0-----|
G--5 x2--0 x2--|
E--0-----0-----|

e--x------|
B--x------|
G--0------|
D--0------|
G--7 x20--|
E--0------|
And nobody likes me baby
If I cry

e--x-----x-----|
B--x-----x-----|
G--0-----0-----| x4
D--0-----0-----|
G--5 x2--0 x2--|
E--0-----0-----|

e--x----x----x-----x----x---x--|
B--0----0----0-----0----0---0--|
G--0----0----0-----0----0---0--|
D--0----0----0-----0----0---0--|
G--7----9----11----12---0---3--|
E--0----0----0-----0----0---0--|

e|----------------------------------|
B|----------------------------------|
G|--0-------0------0-----0----0-----|
D|--0-------0------0-----0----0-----|
G|--12-x5--11-x2---0-x1--5x5--7-x3--|
E|--0-------0------0-----0----0-----|
Spelled out your name and list the reasons faint of heart
Don't call me back
I imagine you and I was distant, non-existent
I followed suit and laid out on my back
Imagine that
A million hours left to think of you and think of that

e|---------------------------|
B|---------------------------|
G|-0------0------0-----0-----|
D|-0------0------0-----0-----|
G|-12-x2--11-x2--5-x2--7-x3--|
E|-0------0------0-----0-----|
Calm down, I'm calling you to say
I'm capsized staring on the edge of safe
Calm down, I'm calling back to say
I'm home now, I'm coming around

e---------|
B---------|
G--0------|
D--0------|
G--5 x16--|
E--0------|
Coming around

e--x------|
B--x------|
G--0------|
D--0------|
G--7 x20--|
E--0------|
But nobody likes to
But I really like to cry

e--x-----x-----|
B--x-----x-----|
G--0-----0-----| x4
D--0-----0-----|
G--5 x2--0 x2--|
E--0-----0-----|

e--x------|
B--x------|
G--0------|
D--0------|
G--7 x20--|
E--0------|
And nobody likes me baby
If I cry

e--x-----x-----|
B--x-----x-----|
G--0-----0-----| x4
D--0-----0-----|
G--5 x2--0 x2--|
E--0-----0-----|

e--x----x----x-----x----x---x--|
B--0----0----0-----0----0---0--|
G--0----0----0-----0----0---0--|
D--0----0----0-----0----0---0--|
G--7----9----11----12---0---5--|
E--0----0----0-----0----0---0--|

e--x----x----x-----x----x---x--|
B--0----0----0-----0----0---0--|
G--0----0----0-----0----0---0--|
D--0----0----0-----0----0---0--| x4
G--7----9----11----12---0---5--|
E--0----0----0-----0----0---0--|
Encircle me I need to be
Taken down
Encircle me I need to be
Taken down
Encircle me I need to be
Taken down
Encircle me I need to be
Taken down

e--x------|
B--x------|
G--0------|
D--0------|
G--7 x20--|
E--0------|
But nobody likes to
But I really like to cry

e--x-----x-----|
B--x-----x-----|
G--0-----0-----| x4
D--0-----0-----|
G--5 x2--0 x2--|
E--0-----0-----|

e--x------|
B--x------|
G--0------|
D--0------|
G--7 x20--|
E--0------|
And nobody likes me baby
If I cry

e--x-----x-----|
B--x-----x-----|
G--0-----0-----| x4
D--0-----0-----|
G--5 x2--0 x2--|
E--0-----0-----|

e|--------------------------------------|
B|--------------------------------------|
G|-0---0---0--0--0--0--0--0---0---0--0--|
D|-0---0---0--0--0--0--0--0---0---0--0--|
G|-12--11--9--7--5--7--9--11--12--0--5--|
E|-0---0---0--0--0--0--0--0---0---0--0--|
Nobody x9

e--x----x----x-----x----x---x--|
B--0----0----0-----0----0---0--|
G--0----0----0-----0----0---0--|
D--0----0----0-----0----0---0--| x4
G--7----9----11----12---0---5--|
E--0----0----0-----0----0---0--|
Encircle me I need to be
Taken down
Encircle me I need to be
Taken down
Encircle me I need to be
Taken down

e--x----x----x-----x----x---x--|
B--0----0----0-----0----0---0--|
G--0----0----0-----0----0---0--|
D--0----0----0-----0----0---0--|
G--7----9----11----12---0---5--|
E--0----0----0-----0----0---0--|
            
Submit corrections



        Con lessons Hard to play? Try these video lessons and learn fast Con lessons
        
↑ Back to top | Tablatures and chords for acoustic guitar and electric guitar, ukulele, drums are parodies/interpretations of the original songs. You may use it for private study, scholarship, research or language learning purposes only