» » »

Teen Idols - Clueless Bass

Artists:  A B C D E F G H I J K L M N O P Q R S T U V W X Y Z # 

Clueless Bass

(ver. 1) Click to play this song!
Teen Idols
 Rating:
4/5 (4 votes)
                CLUELESS by Teen Idols. Album : Nothing To Prove
:
# chorus #   *=play x5 
G----------------(x2)-----------------|--------------------|
D-----------------*-------------------|--------------------|
A----*---*---*---5----*---*---*---*---|----*---*---*---*---|
E---0---0---2--------5---5---5---7----|---0---0---0---0----|
:
# verse-1 #   *=play x10 
G--------(x2)---------|------------|
D-------------*-------|------------|
A----*---*---5----*---|----*---*---|
E---0---0--------5----|---3---5----|
:
Then play chorus
:
# verse-2 #   *=play x10
G--------(x2)---------|--------------------|
D-------------*-------|--------------------|
A----*---*---5----*---|----*---*---*---*---|
E---0---0--------5----|---2---5---7---7----|
:
# outro #  (repeat to fade)  *=play x5
G-------------------------------------|
D-----------------*-------------------|
A----*---*---*---5----*---*---*---*---|
E---0---0---2--------5---5---5---7----|
:
            
Submit corrections

↑ Back to top | Tablatures and chords for acoustic guitar and electric guitar, ukulele, drums are parodies/interpretations of the original songs. You may use it for private study, scholarship, research or language learning purposes only