» » »

Teenage Fanclub - Fear Of Flying Tabs

Artists:  A B C D E F G H I J K L M N O P Q R S T U V W X Y Z # 

Fear Of Flying Tabs

(ver. 1) Click to play this song!
Teenage Fanclub
 Rating:
4/5 (4 votes)


 Fear Of Flying lessons Tabs too difficult? Try these video lessons and learn fast
 
                #

# For the latest collection of Teenage Fanclub chords, go to
#
# If you have any corrections or additions to this file, please email them
#

"Fear of Flying"    (G. Love)



{Intro}:
   G              D           Am       Em 
B|----------------------------------------------
D|----------7-----10\9--7-7---7--------7---9----
G|--7h9-------9------------------9--7-----------
A|----------------------------------------------

   G              D           Am       Em 
B|----------------------------------------------
D|----------7-----10\9--7-7---7--------9---7----
G|--7h9-------9------------------9--7-----------
A|----------------------------------------------

   G              D           Am       Em 
B|----------------------------------------------
D|----------7-----10\9--7-7---7--------7---9----
G|--7h9-------9------------------9--7-----------
A|----------------------------------------------

then   G(10th fret)

{Verse}:
D       G                 D        A          G       
Hey, I don't look back on all the things I've done
     D     D/Db       Bm       Bm/A
I've never looked for answers in a song
D            G               D       A      G       
Ain't got no good ideas, I'm staring at the sun
      D      D/Db     Bm       Bm/A      G  A
Don't always look for comfort in a song

    A ----> Em
e|--0--------- 
B|--2---------
D|--2---------
G|--2-------2-
A|--0-------2-
E|-----3-2--0-

{Chorus}:
Em           A              F#m              B
This is your one-way ticket so don't f**k it up
G    G/F#      Em       G/F#       G        Bm     A      G  A
Your flight is boarding and you're running out of luck
D  Em     G        A      D  Em        G    A
    Add a new vibration         to the situation
D  Em     G        A
    Add a new vibration

{same aas verse chords}:
I'd love to save the world like nature's only son
I've never looked for answers in a song
Don't have to paint no words the thoughts that don't belong
Don't always look for comfort in a song

{same as chorus chords}:
This is your one-way ticket so don't f**k it up
Your flight is boarding and you're running out of luck
Add a new vibration to the situation
Add a new vibration

{Bridge}:
          D        Em              G        A 
     B|---------------------------------------------
     D|----------------------------7---7---9---9----
     G|-------7---------7------9--------------------  :(many times)
     A|--7h9----9--10-----10---------9--------------
     E|---------------------------------------------

hey, hey, hey
hey, hey, hey
hey, hey, hey
hey, hey, hey
hey, hey, hey
Add a new vibration
hey, hey, hey
to the situation
hey, hey, hey
to the situation
hey, hey, hey
to my foundation
hey, hey, hey
Add a new vibration
hey, hey, hey
Add a new vibration
hey, hey, hey
to my foundation
hey, hey, hey
Add a new vibration
hey, hey, hey
to the situation
hey, hey, hey
to the situation
hey, hey, hey
Add a new vibration
hey, hey, hey
Add a new vibration
hey, hey, hey
hey, hey, hey
hey, hey, hey
            
Submit corrections



        Fear Of Flying lessons Hard to play? Try these video lessons and learn fast Fear Of Flying lessons
        
↑ Back to top | Tablatures and chords for acoustic guitar and electric guitar, ukulele, drums are parodies/interpretations of the original songs. You may use it for private study, scholarship, research or language learning purposes only