» » »

Ted Nugent - Turn It Up Tabs

Artists:  A B C D E F G H I J K L M N O P Q R S T U V W X Y Z # 

Turn It Up Tabs

(ver. 1) Click to play this song!
Ted Nugent
 Rating:
4.3/5 (21 vote)

 Turn It Up lessons Tabs too difficult? Try these video lessons and learn fast
 
                [Intro]

e|---------------------|---------------------|
B|-14-----14---12h14---|---14---14---12h14---|
G|-14-----14---12h14---|---14---14---12h14---|  repeated throughout
D|-14-----14---12h14---|---14---14---12h14---|
A|------0----0-------0-|-0----0----0-------0-| 
E|---------------------|---------------------|
        PM   PM      PM  PM   PM   PM      PM
 

[Intro Solo]

e|-5-----------------|-------------------|-------------------|-------------------|
B|-------------5h8---|-5~--5-------------|-------------------|-5-----5~----------|
G|-----------------7-|-------7-5~--7p5---|---5---------------|-5-----5~----7p5---|
D|-------------------|-----------------5-|-7---7---7p5---5-7-|-----7-----------7-|
A|-------------------|-------------------|-------------7-----|-------------------|
E|-------------------|-------------------|-------------------|-------------------|

e|--------------------8p5-|----5-----------------|-----------------------------------15-----/17~-|
B|-------5-5--8p5---5-----|-5-----8p5--------8---|-10p8---8-12p10--12-13p10--10-13/15--15-13-----|
G|-5-7b9----------7-------|----------7p5--/9---9-|------9--------11--------12--------------------|
D|------------------------|----------------------|-----------------------------------------------|
A|------------------------|----------------------|-----------------------------------------------|
E|------------------------|----------------------|-----------------------------------------------|



[Verse]

   Rhythm, except where indicated
e|(17)-----------------|---------------------|
B|-14-----14---12h14---|---14---14---12h14---|
G|-14-----14---12h14---|---14---14---12h14---|  play 4x
D|-14-----14---12h14---|---14---14---12h14---|  top note rings on occasional repeats
A|--0---0--0-0--0----0-|-0--0-0--0-0--0----0-| 
E|---------------------|---------------------|
        PM   PM      PM  PM   PM   PM      PM

e|---------------------|-----------------------|-10-------------------|------------------------|
B|-10-----12----10h12--|---12----12----10h12---|-10-----12----10h12---|---12----12----10h12----|
G|-11-----11----11-----|---11----11----11------|-11-----11----11------|---11----11----11-------|
D|--0---0--0--0--0---0-|-0--0--0--0--0--0----0-|--0---0--0--0--0----0-|-0--0--0--0--0--0----0--|
A|---------------------|-----------------------|----------------------|------------------------|
E|---------------------|-----------------------|----------------------|------------------------|

   Rhythm
e|---------------------|---------------------|
B|-14-----14---12h14---|---14---14---12h14---|
G|-14-----14---12h14---|---14---14---12h14---|  play 2x
D|-14-----14---12h14---|---14---14---12h14---|
A|--0---0--0-0--0----0-|-0--0-0--0-0--0----0-| 
E|---------------------|---------------------|
 |      PM   PM      PM  PM   PM   PM      PM
 | Lead 
e|---------------------|---------------------|---------------------|--------------------|
B|-----14--------------|-14---12-------------|-14---12-------------|-14---12------------|
G|-----------14--------|-----------14--------|-----------14---14---|---------14---------|
D|---------------------|---------------------|---------------------|--------------------|
A|---------------------|---------------------|---------------------|--------------------|
E|---------------------|---------------------|---------------------|--------------------|


   Rhythm
e|-----------------|-----------------|------------------|----------------------|
B|-9------------9--|-10-----------10-|-11-----------11--|--12---12---13---13---|
G|-9------------9--|-10-----------10-|-11-----------11--|--12---12---13---13---|
D|-9------------9--|-10-----------10-|-11-----------11--|--12---12---13---13---|
A|-7------------7--|-8------------8--|--9------------9--|--10---10---11---11---|
E|-----------------|-----------------|------------------|----------------------|

e|---------------------|---------------------|
B|-14-----14---12h14---|---14---14---12h14---|
G|-14-----14---12h14---|---14---14---12h14---|
D|-14-----14---12h14---|---14---14---12h14---|
A|--0---0--0-0--0----0-|-0--0-0--0-0--0----0-| 
E|---------------------|---------------------|
        PM   PM      PM  PM   PM   PM      PM



[Brief Lead]

  (0:42)
e|------------------|--------------------|-------------------|--------------------|
B|-8brb10-------8-5-|-8brb10-------8p5---|-5-----5--8p5------|--------------------|
G|------------------|------------------7-|---7b9---------7p5-|---5----------------|
D|------------------|--------------------|-------------------|-7---7p5---5--------|
A|------------------|--------------------|-------------------|---------7---7-5----|
E|------------------|--------------------|-------------------|-----------------8--|


Repeat Verse

[Brief Lead 2]

  (0:42)
e|------------------|--------------------|---------------------|--------------------|
B|-8brb10-------8-5-|-8brb10------5h8p5--|-5-----5-8--5----5-8-|-5-7-5-5~~----------|
G|------------------|------------------7-|---7b9-------7p5-----|--------------------|
D|------------------|--------------------|---------------------|--------------------|
A|------------------|--------------------|---------------------|--------------------|
E|------------------|--------------------|---------------------|--------------------|



[Bridge]

  (1:11)
e|---------------------|--------------------|------------------|--------------------|
B|---------------------|--------------------|------------------|--------------------|
G|-----------2---------|-----------4--------|-----------2------|-4-----2-----4------|
D|-----------2---------|-----------4--------|-----------2------|-4-----2-----4------|
A|---------------------|--------------------|------------------|--------------------|
E|-2-2-2-2-2-----------|-2-2-2-2-2----------|-2-2-2-2-2--------|-----2--------------|


[Bridge Solo]
   Slower tempo
e|---------------------|-------------2-------2~~-|-----------------------------|
B|-2-------------------|-2-------2-5---5pbr7-----|--------2-----2--------------|
G|----4b6----4p2-------|----4b6------------------|-4brb6----4p2---2------4p2---|
D|---------------4p2---|-------------------------|------------------4-2~-----4-|
A|---------------------|-------------------------|-----------------------------|
E|---------------------|-------------------------|-----------------------------|

e|---------2-----5-------------------|-2---5br7-------------------------|-----------------------|
B|-------2-2---2---2-5brb7~----------|---2------2h5p2---2h5p2---2h5p2---|-2---------------------|
G|-2-4b6-----4-----------------------|----------------4-------4-------4-|---4p2-2-4-2---2~--2-2-|
D|-----------------------------------|----------------------------------|-------------4---------|
A|-----------------------------------|----------------------------------|-----------------------|
E|-----------------------------------|----------------------------------|-----------------------|

e|-----------------------------------------|--------------------------------|-------------|
B|-----------------------------------------|--------------------------------|-------------|
G|-4p2---2---------------------------------|-----------------------2---4br6-|-2~~---------|
D|-----4---4p2---2-4p2---2-----------------|-------------4p2---2-4---4------|-------------|
A|-------------4-------4---4-2---2-4p2---2-|-2-4p2---2-4-----4--------------|-------------|
E|-----------------------------4-------4---|-------4------------------------|-------------|


[Verse 3]

   Rhythm, except where indicated
e|(17)-----------------|---------------------|
B|-14-----14---12h14---|---14---14---12h14---|
G|-14-----14---12h14---|---14---14---12h14---|  play 4x
D|-14-----14---12h14---|---14---14---12h14---|  top note rings on occasional repeats
A|--0---0--0-0--0----0-|-0--0-0--0-0--0----0-| 
E|---------------------|---------------------|
        PM   PM      PM  PM   PM   PM      PM

e|---------------------|-----------------------|-10-------------------|------------------------|
B|-10-----12----10h12--|---12----12----10h12---|-10-----12----10h12---|---12----12----10h12----|
G|-11-----11----11-----|---11----11----11------|-11-----11----11------|---11----11----11-------|
D|--0---0--0--0--0---0-|-0--0--0--0--0--0----0-|--0---0--0--0--0----0-|-0--0--0--0--0--0----0--|
A|---------------------|-----------------------|----------------------|------------------------|
E|---------------------|-----------------------|----------------------|------------------------|

   Rhythm
e|---------------------|---------------------|
B|-14-----14---12h14---|---14---14---12h14---|
G|-14-----14---12h14---|---14---14---12h14---|  play 2x
D|-14-----14---12h14---|---14---14---12h14---|
A|--0---0--0-0--0----0-|-0--0-0--0-0--0----0-| 
E|---------------------|---------------------|
 |      PM   PM      PM  PM   PM   PM      PM
 | Lead 
e|---------------------|---------------------|---------------------|--------------------|
B|-----14--------------|-14---12-------------|-14---12-------------|-14---12------------|
G|-----------14--------|-----------14--------|-----------14---14---|---------14---------|
D|---------------------|---------------------|---------------------|--------------------|
A|---------------------|---------------------|---------------------|--------------------|
E|---------------------|---------------------|---------------------|--------------------|


   Rhythm
e|-----------------|-----------------|------------------|----------------------|
B|-9------------9--|-10-----------10-|-11-----------11--|--12---12---13---13---|
G|-9------------9--|-10-----------10-|-11-----------11--|--12---12---13---13---|
D|-9------------9--|-10-----------10-|-11-----------11--|--12---12---13---13---|
A|-7------------7--|-8------------8--|--9------------9--|--10---10---11---11---|
E|-----------------|-----------------|------------------|----------------------|

e|---------------------|---------------------|
B|-14-----14---12h14---|---14---14---12h14---|
G|-14-----14---12h14---|---14---14---12h14---|
D|-14-----14---12h14---|---14---14---12h14---|
A|--0---0--0-0--0----0-|-0--0-0--0-0--0----0-| 
E|---------------------|---------------------|
        PM   PM      PM  PM   PM   PM      PM


[Brief Lead 3]

  (1:58)
e|------------------|----------------------|-------------------------|--------------------|
B|-8br10-5-8b10~~---|-8br10-5-8b10~~-----5-|-8p5---5-----------------|--------------------|
G|------------------|----------------7b9---|-----7-----7b9-7p5---5---|--------------------|
D|------------------|----------------------|-------------------7---7-|-5---5--------------|
A|------------------|----------------------|-------------------------|---7----------------|
E|------------------|----------------------|-------------------------|-------0------------|



[Bridge Repeat]

  (1:11)
e|---------------------|--------------------|------------------|--------------------|
B|---------------------|--------------------|------------------|--------------------|
G|-----------2---------|-----------4--------|-----------2------|-4-----2-----4------|
D|-----------2---------|-----------4--------|-----------2------|-4-----2-----4------|
A|---------------------|--------------------|------------------|--------------------|
E|-2-2-2-2-2-----------|-2-2-2-2-2----------|-2-2-2-2-2--------|-----2--------------|


[Bridge Solo 2]

e|-------------------------------------|---------------2---------------------------|
B|----------------------------5--------|-------------2---5p2---2-5p2---2-5b7---2-2-|
G|-4brb6-------4p2---2--4--2-----------|-4p2---2-4b6---------4-------4-------------|
D|-----------------2-------------2---2-|-----4-------------------------------------|
A|-------------------------------------|-------------------------------------------|
E|-------------------------------------|-------------------------------------------|

e|-----2---------------------------------|---------------------------------------|
B|-5b7---5p2---2-------------------------|---------------------------------------|
G|-----------4----4p2---2--4p2---2-------|---------------------------------2---2-|
D|--------------------4--------4---4-----|-2-------2-------2h4p2-------2-4---4---|
A|-----------------------------------2h4-|---4-4-4---4-2h4-------4-2-4-----------|
E|---------------------------------------|---------------------------------------|

e|---------------------------------------|-----------------------2-----------|
B|-----2-5p2---2-5p2---2-5p2---2-5p2---2-|-5p2---2-5p2---2-----2---2---2-----|
G|-4b6-------4-------4-------5-------5---|-----5-------5---4b6-------4---4---|
D|---------------------------------------|-----------------------------------|
A|---------------------------------------|-----------------------------------|
E|---------------------------------------|-----------------------------------|

e|-------------------------------|---------2----------------------------|
B|-2-----------------------------|-------2---5p2---2---------5h7p5---5--|
G|-4br6~~~~----------------4p2---|-2-4b6---------4---4p2---2-------6----|
D|-----------------------------4-|-----------------------4--------------|
A|-------------------------------|--------------------------------------|
E|-------------------------------|--------------------------------------|


Back to Verse Again on Rhythm

[Solo Part]

   faster tempo again, 
e|-5--------------------|--------------------------|--------------------|------------------5-|
B|-----8b10~------8p5---|-5------------------------|--------------------|----------------5---|
G|--------------------7-|----7b9-7p5---5---5-7p5---|-5------------------|-----5---5--7b9-----|
D|----------------------|------------7-----------7-|---5-7p5---5--7p5---|-5-7---7------------|
A|----------------------|--------------------------|---------7--------7-|--------------------|
E|----------------------|--------------------------|--------------------|--------------------|

e|-------5-----------------|-----------------------------|------------8-10-11--------|
B|-5---5---8p5---5---------|--------8-10p8---8-11p8-10p8-|---8-8-10-11-------8-10-11-|
G|-7b9---------7---7b9-7p5-|---5-/9--------9-------------|-9-------------------------|
D|-------------------------|-7---------------------------|---------------------------|
A|-------------------------|-----------------------------|---------------------------|
E|-------------------------|-----------------------------|---------------------------|



e|-8-10-11-------8-10brb12~--------|
B|--------8-10-11------------------|
G|---------------------------------|
D|---------------------------------|
A|---------------------------------|
E|---------------------------------|

continue with Verse



[Brief Lead 4]
   (2:45)
e|---------------------|-10------8------------|-10br12--8-10br12--8-|-8-9-10-8-9-10-8-9-10-8-|--------|
B|-10~--8-10~----------|-----------10~--------|---------------------|------------------------|-10\----|
G|---------------------|----------------------|---------------------|------------------------|--------|
D|---------------------|----------------------|---------------------|------------------------|--------|
A|---------------------|----------------------|---------------------|------------------------|--------|
E|---------------------|----------------------|---------------------|------------------------|--------|


Continue playing Verse Riff


[Solo Returns]
e|-5---------------|-5tr8-----------|-----------------|
B|-----------------|----------------|-----------------|
G|-----------------|----------------|-7b9-------------|
D|-----------------|----------------|-----------------|
A|-----------------|----------------|-----------------|
E|-----------------|----------------|-----------------|


e|-----------------|---------5-----|------------------|----------------------|
B|-8b10~~----------|------------5--|-8b10~~------8--5-|------------5h8p5---5-|
G|-----------------|---------------|------------------|-5~---------------7---|
D|-----------------|---------------|------------------|----------------------|
A|-----------------|---------------|------------------|----------------------|
E|-----------------|---------------|------------------|----------------------|

e|-------5-------------------|----------------------|------------------------------|
B|-8b10----8p5-----5-8p5---5-|-8p5---5--------------|------------------------------|
G|-------------7b9-------7---|-----7---7b9--7-5---5-|-5-7-8--5-7-8-5-5-7-8-5-5-7-8-| repeat note sequence 
D|---------------------------|------------------7---|------------------------------| and start fade
A|---------------------------|----------------------|------------------------------|
E|---------------------------|----------------------|------------------------------|

            
Submit corrections


        Turn It Up lessons Hard to play? Try these video lessons and learn fast Turn It Up lessons
        
↑ Back to top | Tablatures and chords for acoustic guitar and electric guitar, ukulele, drums are parodies/interpretations of the original songs. You may use it for private study, scholarship, research or language learning purposes only