» » »

Tears For Fears - I Choose You Tabs

Artists:  A B C D E F G H I J K L M N O P Q R S T U V W X Y Z # 

I Choose You Tabs

(ver. 1) Click to play this song!
Tears For Fears
 Rating:
4.3/5 (24 votes)

 I Choose You  lessons Tabs too difficult? Try these video lessons and learn fast
 
                [Intro] 

D# |-----2-0---------2-0------------------|
A# |----3-----3--0-3--------3-3--3--------|
F# |---0--------------------0-0--2--------|
C# |--2---------------------2-2--0--------|
G# |------------------------3-3--0--------|
D# |-----------------------------3--------|


         I knew all this was coming     Ain't that odd
D# |-----2-0-----------------2-0----------------------------|
A# |----3-------3---0----3--------------3-----3----3--------|
F# |---0--------------------------------0-----0----2--------|
C# |--2---------------------------------2-----2----0--------|
G# |------------------------------------3-----3----0--------|
D# |-----------------------------------------------3--------|


         Some things come out of nothing    As with god
D# |-----2----0------------------2-0-------------------------|
A# |----3------------3----0---3-------------3--3----3--------|
F# |---0------------------------------------0--0----2--------|
C# |--2-------------------------------------2--2----0--------|
G# |----------------------------------------3--3----0--------|
D# |------------------------------------------------3--------|

(Strum the Asus2 until "Or confuse")

 Not my intention to amuse or confuse
D# |---------------------------------------|
A# |--0--------------------3--3--3---------|
F# |--2--------------------0--0--2---------|
C# |--2--------------------2--2--0---------|
G# |--0--------------------3--3--0---------|
D# |-----------------------------3---------|

(Repeat patterns for next verses)


I've been down to the kitchen
Played my part
Mapped out all all contradictions
Of the heart

(Also strum the Asus2, the A#sus2, and the D until intro pattern)

 Then someone came and stole my shoes   A situation I tried to diffuse
D# |--------------------------------------------------------------2--------|
A# |--0-----------------------------------1-----------------------3--------|
F# |--2-----------------------------------3-----------------------2--------|
C# |--2-----------------------------------3-----------------------0--------|
G# |--0-----------------------------------1-----------------------0--------|
D# |-----------------------------------------------------------------------|

D# |-----2-0---------2-0------------------|
A# |----3-----3--0-3--------3-3--3--------|
F# |---0--------------------0-0--2--------|
C# |--2---------------------2-2--0--------|
G# |------------------------3-3--0--------|
D# |-----------------------------3--------|

(Repeat patterns for next verses)


Long way back clouds were forming
If by choice        
Some things come as a warning
Hear their voice

      I wish that I could change it's hue   Paint it blue
D# |-----------------------------------------------------------|
A# |----0-----------------------------------3-----3--3---------|
F# |----2-----------------------------------0-----0--2---------|
C# |----2-----------------------------------2-----2--0---------|
G# |----0-----------------------------------3-----3--0---------|
D# |-------------------------------------------------3---------|
(Strum everything until intro pattern
      But when I think what I could lose   All other options disappear from view
D# |------------------------------------------------------------------------2-------2--|
A# |------0------------------------------------1----------------------------3-------3--|
F# |------2------------------------------------3----------------------------2-------2--|
C# |------2------------------------------------3----------------------------0-------0--|
G# |------0------------------------------------1----------------------------0-------3--|
D# |--------------------------------------------------------------------------------3--|

      When I choose     I choose you        I choose you
D# |---------2-------2-----------2-------2------------2--------|
A# |---------3-------3-----------3-------3------------3--------|
F# |---------2-------2-----------2-------2------------2--------|
C# |---------0-------0-----------0-------0------------0--------|
G# |---------0-------3-----------0-------3------------0--------|
D# |-----------------3-------------------3---------------------|

D# |-----2-0---------2-0------------------|
A# |----3-----3--0-3--------3-3--3--------|
F# |---0--------------------0-0--2--------|
C# |--2---------------------2-2--0--------|
G# |------------------------3-3--0--------|
D# |-----------------------------3--------|

D# |----------------|
A# |--3-3--3--------|
F# |--0-0--2--------|
C# |--2-2--0--------|
G# |--3-3--0--------|
D# |-------3--------| (x3)            
Submit corrections


        I Choose You  lessons Hard to play? Try these video lessons and learn fast I Choose You  lessons
        
↑ Back to top | Tablatures and chords for acoustic guitar and electric guitar, ukulele, drums are parodies/interpretations of the original songs. You may use it for private study, scholarship, research or language learning purposes only