» » »

Taylor Swift - Love Story Bass

Artists:  A B C D E F G H I J K L M N O P Q R S T U V W X Y Z # 

Love Story Bass

(ver. 1) Click to play this song!
Taylor Swift
 Rating:
4/5 (4 votes)


 Love Story lessons Tabs too difficult? Try these video lessons and learn fast
 
                bass tab..
standard tune:E,A,D,G


halu..hindi ako sure if tama ito piro kasing tunog rin nman hehehe...
standard lang poh ito .E.A.D.G ^_^ coment lang poh if sa tingin nyo mali, first bass tab 


sabayan nyo lang poh kong kailan kayoh papasok...ok ^_^

1st stansa:

E-----3---7---5---]
A--5--------------]
D-----------------]
G-----------------]

1st ref:

E--3-33---5-55---7-77--------]  E--3-33---5-55---7-77--3333--5555--]
A----------------------5-55--]  A----------------------------------]
D----------------------------]  D----------------------------------]
G----------------------------]  G----------------------------------]

Chor:

E------------555555555--777777777--333333333--55555-----]
A--55555555---------------------------------------------]
D-------------------------------------------------------]
G-------------------------------------------------------]

ang 2nd stansa poh...pareha lang poh ang bass sa 1st stansa:pero hindi nah isa isa ang 
kayoh lang poh sumabay sa beat madali rin lang ^_^ dinig rin lang naman yong bass..hehehe

pag katapos nyo sa 2nd stansa blik ulit kayoh sa ref: pareha rin lang poh ^_^

pagkatapos nyo sa 2nd ref: 2nd chor na naman kayo..pariha lang din ^_^piroh ka 3x nyoh 
hehe pag katapos poh ay biglang hinto agad yun ito pong bass pag hinto..

E--7----3----------5--]
A------------5--------]
D---------------------]  2x
G---------------------]

sabay lang din kayoh dito kong kailan kayoh papasok...^_^

E--77777777777777---333333333---555555555----]
A--------------------------------------------]
D--------------------------------------------]
G--------------------------------------------]


last part na ito hindi ako sure if tama ito..hehehe..


E-----------------------------------------------5555555555---77777777-]
A--77777777777---22222222222222--444444444444-------------------------]
D---------------------------------------------------------------------]
G---------------------------------------------------------------------]

E--------------------------------------------555555555s17-]
A-77777777777--2222222222222--444444444444----------------]
D---------------------------------------------------------]
G---------------------------------------------------------]


yan lang poh kayoh na bahala sumabay sa kanta ^_^...pyts2x hehehe didicate ko itong song 
saking gf hehehe yeah -"(^_^)"-
            
Submit corrections



        Love Story lessons Hard to play? Try these video lessons and learn fast Love Story lessons
        
↑ Back to top | Tablatures and chords for acoustic guitar and electric guitar, ukulele, drums are parodies/interpretations of the original songs. You may use it for private study, scholarship, research or language learning purposes only