» » »

Taylor Swift - Bad Blood Tabs

Artists:  A B C D E F G H I J K L M N O P Q R S T U V W X Y Z # 

Bad Blood Tabs

(ver. 1) Click to play this song!
Taylor Swift
 Rating:
4.4/5 (14 votes)

 Bad Blood lessons Tabs too difficult? Try these video lessons and learn fast
 
                [Intro / Chorus]
                              "Cause baby now we got..."       "You know we...."
e|----------------------------0-0-0--|--0-2-4-------------------0-0-0----|
B|-----------------------------------|----------2-----0------------------|
G|-----------------------------------|------------------1----------------|
D|-----------------------------------|-----------------------------------|
A|-----------------------------------|-----------------------------------|
E|-----------------------------------|-----------------------------------|

    "used to be mad love     so take a look what you've done   cause baby..."
e|--0-2-4---------------------0-0-0--|--0-2-4---------------------0-0-0--|
B|----------2-----0------------------|----------2-----0------------------|
G|------------------1----------------|------------------1----------------|
D|-----------------------------------|-----------------------------------|
A|-----------------------------------|-----------------------------------|
E|-----------------------------------|-----------------------------------|

    "now we got bad blood..."           "now we got problems     and I don't..."   
e|--0-2-4---4-----7-4----------------|--0-2-4---------------------0-0-0--|
B|-----------------------------------|----------2-----0------------------|
G|-----------------------------------|------------------1----------------|
D|-----------------------------------|-----------------------------------|
A|-----------------------------------|-----------------------------------|
E|-----------------------------------|-----------------------------------|

  "think we can solve them    you made a really big problem       so baby...."
e|--0-2-4---------------------0-0-0--|--0-2-4---------------------0-0-0--|
B|----------2-----0------------------|----------2-----0------------------|
G|------------------1----------------|------------------1----------------|
D|-----------------------------------|-----------------------------------|
A|-----------------------------------|-----------------------------------|
E|-----------------------------------|-----------------------------------|

                                       [Verse]
    "now we got bad blood....           Did     you     have to do this..."
e|--0-2-4---4-----7-4----------------|--0---------------0-0-4---4--------|
B|-----------------------------------|----------2------------------------|
G|-----------------------------------|-----------------------------------|
D|-----------------------------------|-----------------------------------|
A|-----------------------------------|-----------------------------------|
E|-----------------------------------|-----------------------------------|

   "I was thinking that you could be... did     you     have to ruin..."
e|-----------------------------------|--0---------------0-0-4---4--------|
B|--4---4---4---4-4-4-4-5---5---2----|----------2------------------------|
G|-----------------------------------|-----------------------------------|
D|-----------------------------------|-----------------------------------|
A|-----------------------------------|-----------------------------------|
E|-----------------------------------|-----------------------------------|

  "what was shining now is all...       did     you     have to hit me..."  
e|-----------------------------------|--0---------------0-0-4---4--------|
B|--4---4---4---4---4-4-5---5---2----|----------2------------------------|
G|-----------------------------------|-----------------------------------|
D|-----------------------------------|-----------------------------------|
A|-----------------------------------|-----------------------------------|
E|-----------------------------------|-----------------------------------|

   "where I'm weak baby...              rubbed  it      in  so  deep..."
e|-----------------------------------|--0---------------0---4---4--------|
B|--4---4---4---4-4-4-4-5---5---2----|----------2------------------------|
G|-----------------------------------|-----------------------------------|
D|-----------------------------------|-----------------------------------|
A|-----------------------------------|-----------------------------------|
E|-----------------------------------|-----------------------------------|

                                       [Pre-chorus]
   "Salt in the wound like you're...                    It's  so    sad..."
e|-----------------------------------|------------------7-----4-----2----|
B|--4---4-4-4---4-4-4-4-5---5---2----|-----------------------------------|
G|-----------------------------------|-----------------------------------|
D|-----------------------------------|-----------------------------------|
A|-----------------------------------|-----------------------------------|
E|-----------------------------------|-----------------------------------|

       "to         think about the good     time        you   and    I..."
e|------0-----------7---4-4---2-2----|------0-----------7-----4-----2----|
B|-----------------------------------|-----------------------------------|
G|-----------------------------------|-----------------------------------|
D|-----------------------------------|-----------------------------------|
A|-----------------------------------|-----------------------------------|
E|-----------------------------------|-----------------------------------|

  [Chorus]
                              "Cause baby now we got..."       "You know we...."
e|----------------------------0-0-0--|--0-2-4-------------------0-0-0----|
B|-----------------------------------|----------2-----0------------------|
G|-----------------------------------|------------------1----------------|
D|-----------------------------------|-----------------------------------|
A|-----------------------------------|-----------------------------------|
E|-----------------------------------|-----------------------------------|

   "used to be mad love     so take a look what you've done   cause baby..."
e|--0-2-4---------------------0-0-0--|--0-2-4---------------------0-0-0--|
B|----------2-----0------------------|----------2-----0------------------|
G|------------------1----------------|------------------1----------------|
D|-----------------------------------|-----------------------------------|
A|-----------------------------------|-----------------------------------|
E|-----------------------------------|-----------------------------------|

    "now we got bad blood..."           "now we got problems     and I don't..."   
e|--0-2-4---4-----7-4----------------|--0-2-4---------------------0-0-0--|
B|-----------------------------------|----------2-----0------------------|
G|-----------------------------------|------------------1----------------|
D|-----------------------------------|-----------------------------------|
A|-----------------------------------|-----------------------------------|
E|-----------------------------------|-----------------------------------|

  "think we can solve them    you made a really big problem       so baby...."
e|--0-2-4---------------------0-0-0--|--0-2-4---------------------0-0-0--|
B|----------2-----0------------------|----------2-----0------------------|
G|------------------1----------------|------------------1----------------|
D|-----------------------------------|-----------------------------------|
A|-----------------------------------|-----------------------------------|
E|-----------------------------------|-----------------------------------|

                                      
    "now we got bad blood...."
e|--0-2-4---4-----7-4----------------||
B|-----------------------------------||
G|-----------------------------------||
D|-----------------------------------||
A|-----------------------------------||
E|-----------------------------------||            
Submit corrections


        Bad Blood lessons Hard to play? Try these video lessons and learn fast Bad Blood lessons
        
↑ Back to top | Tablatures and chords for acoustic guitar and electric guitar, ukulele, drums are parodies/interpretations of the original songs. You may use it for private study, scholarship, research or language learning purposes only