» » »

Taproot - One Nite Stand Tabs

Artists:  A B C D E F G H I J K L M N O P Q R S T U V W X Y Z # 

One Nite Stand Tabs

(ver. 1) Click to play this song!
Taproot
 Rating:
4/5 (4 votes)

 One Nite Stand lessons Tabs too difficult? Try these video lessons and learn fast
 
                Tuning: ADGCFA (Baritone guitar tuned down 1 step)

intro clean / verse                                            
A|-----------------------------------|------------------------------| 
F|-----------------------------------|------------------------------| 
C|--99-9-9-9^9---9--999-99-----7-----|----13-13-13-13\8-8-----------|
G|-----------------------------------|------------------------------|
D|--77-7-7-7^7---7--777-77-----5-----|----11-11-11-11\6-6-----------|
A|--------------------------3--------|------------------------------|

chorus/pre-VERSE. you can figure out the rhythm by listening. i dont have 4 hours to write all the patterns :)
                                       the last time let the open notes ring 
A|------------------------------0---------|-------0--------------------------|  
F|------------------------------0---------|-------0------------------------| 
C|------------------------------0---------|-------0--------------------|
G|---22--2-2---3/5--5-5-5-5--4444-4444----|----4--------------------------
D|---22--2-2---3/5--5-5-5-5--4444-4444----|----4----------------------|
A|---00--0-0---1/3--3-3-3-3--2222-2222----|----2-----------------------|


BRIDGE is the same as the intro and verse but with distortion/ then clean with phaser and thats it!

My first posted tab so please rate it!!
            
Submit corrections


        One Nite Stand lessons Hard to play? Try these video lessons and learn fast One Nite Stand lessons
        
↑ Back to top | Tablatures and chords for acoustic guitar and electric guitar, ukulele, drums are parodies/interpretations of the original songs. You may use it for private study, scholarship, research or language learning purposes only