Home » T » Tamia »

Tamia - Officially Missing You Ukulele

Artists:  A B C D E F G H I J K L M N O P Q R S T U V W X Y Z # 

Officially Missing You Ukulele

(Version #1)
Tamia
[Verse]
 
A|-------0--0h2-0-|-2-3-2---------|-2-2-3s5---------2-3-2-|
E|---0-3----------|-------3-3s5-3-|---------5-3-3-5-------|
C|-2--------------|---------------|-----------------------|
G|----------------|---------------|-----------------------|
 
 
A|-----------------------|-------------|-----2-2h3-2-------|
E|---3-5~~5-5-3--0-3-5-7-|-3-3-3-5p3-0-|-------------5-3-3-|
C|-2------------2--------|-------------|-2-2---------------|
G|-----------------------|-------------|-------------------|
 
 
 
[Chorus]
 
A|----|-------------------|--2-2h3-2-2h3-2---------|
E|-2--|-2-2-2-2-3s5-5-3-5-|-3----------------3s5-3-|
C|----|-------------------|----------------2-------|
G|----|-------------------|------------------------|
 
 
A|-2-------|---------|-2-2p0---|-----2-2h3-2-------|
E|---3-3-3-|---3-5-3-|-------3-|-------------5-3-3-|
C|---------|-5-------|---------|-2-2---------------|
G|---------|---------|---------|-------------------|
            
Submit corrections

↑ Back to top | Tablatures and chords for acoustic guitar and electric guitar, ukulele, drums are parodies/interpretations of the original songs. You may use it for private study, scholarship, research or language learning purposes only