Home » T » Tame Impala »

Tame Impala - It Is Not Meant To Be Bass

Artists:  A B C D E F G H I J K L M N O P Q R S T U V W X Y Z # 

It Is Not Meant To Be Bass

(ver. 1) Click to play this song!
Tame Impala
[Intro]
 
G|----------------------|------------------------------|
D|------------17--12-/17|-15-14-12----12h14-12---------|
A|-10--12-13/-----------|----------15----------15-13-12|\
E|----------------------|------------------------------| \
                                                           x4
G|----------------------|------------------------------| /
D|------------17--10-/17|-15-14-12----12h14-12---------|/
A|-10--12-13/-----------|----------15----------15-13-12|
E|----------------------|------------------------------|
 
[Verse 1]
 
"But she doesn't like..."
G|------------------|-----------------|---------7--------------7----|
D|------12-------12-|------12---------|-------5---7-5--------5---7-5|
A|-0--------0-------|-0--------0----5-|-0--5----------0--5-7--------|
E|------------------|-----------------|-----------------------------|
 
G|---------7----------7----|--------7--------------7----|-----------|
D|-----------7-5--------7-5|------5---7-5--------5---7-5|-----/12---|
A|-0--5----------0---------|-0------------0--5-7--------|-5---------|
E|-------------------------|----------------------------|-----------|
 
[Chorus]
 
G|----------------|----------------|---------------------|------------------|
D|----------------|----------------|--------12---10------|------------------|
A|----------------|-5-5-7-7-8-8-8-8|-8-8-10----8----10-10|-8-8-10-10-8-7-5\-|
E|-1-1-3-3-1-1-3-3|----------------|---------------------|------------------|
 
G|----------------|---------------------|-----------------------|-------------------------------|
D|----------------|----------------10-10|------------------10---|-------------------------------|
A|----------------|-5-5-7-7h10-8-8------|-8-8-10-10-8-8-10----10|-8--8-8--10--10-10--8--8-8-----|
E|-1-1-3-3-1-1-3-3|---------------------|-----------------------|----------------------------3-3|
 
[Verse 2]
 
G|-------7-----------7----|----------7-------------7----|-----------------7----|
D|---------7-5---------7-5|--------5---7-5-------5---7-5|----10---------5---7-5|
A|-0--5--------0--5-------|-0--5-7---------0--5---------|---------0--5---------|
E|------------------------|-----------------------------|-5\-------------------|
 
G|---------7-------------7----|-----------|
D|-------5---7-5-------5---7-5|-----------|
A|-0--5----------0--5---------|-5----\3---|
E|----------------------------|-----------|
 
[Chorus]
 
G|----------------|----------------|--------------------|-------------------------------------------|
D|----------------|----------------|--------------------|-------------------------------------------|
A|----------------|-5-5-7-7-8-8-8-8|-8-8-10-10-8-8-10-10|-8--8-8--10--10-10--12--12-12--12-10--10-10|
E|-1-1-3-3-1-1-3-3|----------------|--------------------|-------------------------------------------|
 
[Solo]
 
G|----------------|-----------------------------|-----------------------------------|
D|----------------|-------------------------10--|---10------------------------------|
A|----------------|-5--5-5--7--7-7h10\8-8-8----8|-8-----10--10-10--8--8-8--10--10-10|
E|-1-1-3-3-1-1-3-3|-----------------------------|-----------------------------------|
 
G|---------------------------------|-------------------------|
D|---------------------------------|-----------12--14-/16-14\|
A|/12--12-12/14\-10--10-10--8-8-8-8|-7--/10h12---------------|
E|---------------------------------|-------------------------|
 
[Outro]
 
G|----------------------|------------------------------|
D|------------17--12-/17|-15-14-12----12h14-12---------|
A|-10--12-13/-----------|----------15----------15-13-12|\
E|----------------------|------------------------------| \
                                                           x3
G|----------------------|------------------------------| /
D|------------17--10-/17|-15-14-12----12h14-12---------|/
A|-10--12-13/-----------|----------15----------15-13-12|
E|----------------------|------------------------------|
 
G|----------------------|------------------------------|-----|
D|------------17--12-/17|-15-14-12----12h14-12---------|-----|
A|-10--12-13/-----------|----------15----------15-13-12|-10--|
E|----------------------|------------------------------|-----|
            
Submit corrections

↑ Back to top | Tablatures and chords for acoustic guitar and electric guitar, ukulele, drums are parodies/interpretations of the original songs. You may use it for private study, scholarship, research or language learning purposes only