» » »

Tally Hall - Mucka Blucka Tabs

Artists:  A B C D E F G H I J K L M N O P Q R S T U V W X Y Z # 

Mucka Blucka Tabs

(ver. 1) Click to play this song!
Tally Hall
 Rating:
4/5 (4 votes)

 Mucka Blucka lessons Tabs too difficult? Try these video lessons and learn fast
 
                mucka blucka


tally hall








  bass line                                               
e:--------------------------------------------------------------|
B:--------------------------------------------------------------|
G:----------------------7-------7--------7----------------------|
D:------5-------5-------7-------7--------7------7-------5-------|
A:------5-----5-----5-5----5--5-----5-5----5--5---------5-------|
E:-3-3-----3---------------------------------------3-3-----3--3-|

e:-------------------------------------------------------------|
B:-------------------------------------------------------------|
G:----------------------7-------7--------7---------------------|
D:------5-------5-------7-------7--------7------7-------5------|
A:------5-----------5-5----5--5-----5-5----5--5---------5------|
E:-3-3-----3---------------------------------------3-3-----3-3-|

  chorus                                                              x2
e:-3-3-3-3-3-3-3-3-3-3--2-2-2-2-2-2----2-2-2-2-2-2--3-3-3-3-3-3-3-3-3-3-|
B:-3-3-3-3-3-3-3-3-3-3--3-3-3-3-3-3----3-3-3-3-3-3--3-3-3-3-3-3-3-3-3-3-|
G:-0-0-0-0-0-0-0-0-0-0--2-2-2-2-2-2----2-2-2-2-2-2--0-0-0-0-0-0-0-0-0-0-|
D:-0-0-0-0-0-0-0-0-0-0--0-0-0-0-0-0-0--0-0-0-0-0-0--0-0-0-0-0-0-0-0-0-0-|
A:-2-2-2-2-2-2-2-2-2-2------------------------------2-2-2-2-2-2-2-2-2-2-|
E:-3-3-3-3-3-3-3-3-3-3------------------------------3-3-3-3-3-3-3-3-3-3-|


bass line                                               
e:--------------------------------------------------------------|
B:--------------------------------------------------------------|
G:----------------------7-------7--------7----------------------|
D:------5-------5-------7-------7--------7------7-------5-------|
A:------5-----5-----5-5----5--5-----5-5----5--5---------5-------|
E:-3-3-----3---------------------------------------3-3-----3--3-|

e:-------------------------------------------------------------|
B:-------------------------------------------------------------|
G:----------------------7-------7--------7---------------------|
D:------5-------5-------7-------7--------7------7-------5------|
A:------5-----------5-5----5--5-----5-5----5--5---------5------|
E:-3-3-----3---------------------------------------3-3-----3-3-|

  chorus                                                              x4
e:-3-3-3-3-3-3-3-3-3-3--2-2-2-2-2-2----2-2-2-2-2-2--3-3-3-3-3-3-3-3-3-3-|
B:-3-3-3-3-3-3-3-3-3-3--3-3-3-3-3-3----3-3-3-3-3-3--3-3-3-3-3-3-3-3-3-3-|
G:-0-0-0-0-0-0-0-0-0-0--2-2-2-2-2-2----2-2-2-2-2-2--0-0-0-0-0-0-0-0-0-0-|
D:-0-0-0-0-0-0-0-0-0-0--0-0-0-0-0-0-0--0-0-0-0-0-0--0-0-0-0-0-0-0-0-0-0-|
A:-2-2-2-2-2-2-2-2-2-2------------------------------2-2-2-2-2-2-2-2-2-2-|
E:-3-3-3-3-3-3-3-3-3-3------------------------------3-3-3-3-3-3-3-3-3-3-|



e:------------------------------------------------------------------16-|
B:-17-17-19-19-------17--17-17-19-19-------17--17-17-19-18-19-18-19----|
G:-------------18-18-----------------18-18-----------------------------|
D:---------------------------------------------------------------------|
A:---------------------------------------------------------------------|
E:---------------------------------------------------------------------|

e:-19-18--19-21--21-19-18---------------------------|
B:-------------------------20-19-17-----------------|
G:----------------------------------19-17-16--------|
D:-------------------------------------------18-17\-|
A:--------------------------------------------------|
E:--------------------------------------------------|



hillo son mex

31/01/14
            
Submit corrections


        Mucka Blucka lessons Hard to play? Try these video lessons and learn fast Mucka Blucka lessons
        
↑ Back to top | Tablatures and chords for acoustic guitar and electric guitar, ukulele, drums are parodies/interpretations of the original songs. You may use it for private study, scholarship, research or language learning purposes only