Home » T » Talk Talk »

Talk Talk - The Rainbow Tabs

Artists:  A B C D E F G H I J K L M N O P Q R S T U V W X Y Z # 

The Rainbow Tabs

(ver. 1) Click to play this song!
Talk Talk
[Intro 1 - 0:00 - Strings/Trumpet]

 | N.C             | Em7             |                 |                 |
 | Em11            |                 |                 | Em7             |
 |                 |                 |                 | Em11            |
 |                 | Em11/F#         | Em11            | Em7             |
 |                 |                 | Em11            |                 |
 |                 |                 | Em7             |                 |
 |                 |                 |                 | Em7/F#          |
 | Em7             |                 |                 | Em11            |
 |                 | Em7             |                 |

[Intro 2 - 1:40]

(13 Bars sound effects)

[Intro 3 - 2:06 - Guitar/Harmonica]

   Am7                         A13sus4   Am7                         A13sus4
e|-------0---------|(0)----0-0-0-0-----|-0---------------|(0)----0-0-0-0-----|
B|-------1---------|(1)----1-1/3-3-----|-1---------------|(1)----1-1/3-3-----|
G|-------0---------|(0)----0-0-0-0-----|-0---------------|(0)----0-0/0-0-----|
D|-2-----2---------|(2)----2-2/4-4---4-|-2---------------|(2)----2-2/4-4---4-|
A|-0-----0---------|(0)----0-0-0-0---0-|-0---------------|(0)----0-0-0-0---0-|
E|-----------------|-------------------|-----------------|-------------------|
   Q.    Q.    Q     Q.    E S S Q   E   W                 Q.    E S S Q   E 

     Am7                       A13sus4     Am7                       A13sus4
e|-0-0-----3-------|(3)----3-3-5-5-----|-----------------|---------0-0-0-0-0-|
B|-3\1-----1-------|(1)----1-1/3-3-----|-----------------|---------1/3-3-3-3-|
G|-0-0-----0-------|(0)----0-0-0-0---x-|-0-0-------------|(0)----x-0-0-0-0-0-|
D|-4\2---2-2-------|(2)----2-2/4-4-----|-4\2-------------|(2)----x-2/4-4-4-4-|
A|-0-0---0-0-------|(0)----0-0-0-0-----|-0-0-------------|(0)----x-0-0-0-0-0-|
E|-----------------|-------------------|-----------------|-------------------|
   E E E E H         Q.    E S S Q   E   E E H.            Q.    E S S E.S E

     Am7                       A13sus4     Am7                       A13sus4
e|-0-0-------------|-------0-0-0-0-----|-0-0-------------|-------3p0-0-------|
B|-3\1-------------|-------1-1/3-3-----|-3\1-------------|-------1-1/3-------|
G|-0-0-------------|-------0-0-0-0-----|-0-0-------------|-------0-0-0-------|
D|-4\2-------------|-------2-2/4-4-----|-4\2-------------|-------2-2/4-------|
A|-0-0-------------|-------0-0-0-0-----|-0-0-------------|-------0-0-0-------|
E|-----------------|-------------------|-----------------|-------------------|
   E E H.            Q.    E S S Q   E   E E H.            Q.    E S S Q.

     Am7                       A13sus4     Am7                   A13sus4
e|-----------------|-------3-3-5-5-5-5-|-0-0-----------3-|-------5---5-5-5-|
B|-----------------|-------1-1/3-3-3-3-|-3\1-----------1-|-------3---3-3-3-|
G|-----------------|-------0-0-0-0-0-0-|-0-0-----------0-|-------0---0-0-0-|
D|-----------------|-------2-2/4-4-4-4-|-4\2-----------2-|-------4---4-4-4-|
A|-----------------|-------0-0-0-0-0-0-|-0-0-----------0-|-------0---0-0-0-|
E|-----------------|-------------------|-----------------|-----------------|
   W                 Q.    E S S Q   E   E E H       E E   Q.    Q   E E E

     Am7                       A13sus4     Am7                       A13sus4
e|-0-0-------------|-----3---0-0--0--0-|-0-0-------------|---------0-0-0-----|
B|-3\1-------------|-------1-1/3--3--3-|-3\1-------------|---------1/3-3-----|
G|-0-0-------------|---------0-0--0--0-|-0-0-------------|---0-----0-0-0-----|
D|-4\2-------------|---------2/4--4--4-|-4\2-------------|---2-----2/4-4---4-|
A|-0-0-------------|---------0-0--0--0-|-0-0-------------|---0-----0-0-0---0-|
E|-----------------|-------------------|-----------------|-------------------|
   E E H.            Q   E E S E  E. E   E E H.            E Q.    S S Q   E

     Am7                       A13sus4   Em
e|-0-0-------------|---------0-0-------|-----------------|-----------0-0-0-|
B|-3\1-------------|---------1/3-------|-----------------|-----------3-3-3-|
G|-0-0-------------|---------0-0-------|-----------------|-----------0-0-0-|
D|-4\2-------------|---------2/4-------|-----------------|-----------------|
A|-0-0-------------|---------0-0-------|-----------------|-----------------|
E|-----------------|-------------------|-----------------|-----------------|
   E E H.            H       S S Q.      W                 H       S E E.E

[Verse 1]

Am7
   Oh yeah
                   A13sus4 Am7   A13sus4
The world's turned upside  down
Am7              A13sus4  Am7  A13sus4
   Jimmy Finn is out
     Am7                     A13sus4  Am7
Well how can that be fair at all?

[Chorus 1]

F#m7  A6  A6/9
  Oh  Lenient   
    A    A6  A      Badd9
The song the lawyer sang
B   B7       Am7
Our nation's wrong

[Interlude 1]

 |(Am7)     E      | Em              |          E      | Em              |
 |          E      | Em              |

   E
e|-----------0-0-0-|
B|-----------3-3-3-|
G|-----------0-0-0-|
D|-----------------|
A|-----------------|
E|-----------------|
   H       S E E.E

     Am7                       A13sus4     Am7                       A13sus4
e|-0---------------|-------0---0-0---0-|-0-0-------------|---------0-0-------|
B|-3---------------|-------1--/3-3---3-|-3\1-------------|---------1/3-------|
G|-0---------------|-------0---0-0---0-|-0-0-------------|---------0-0-------|
D|-4---------------|-------2--/4-4---4-|-4\2-------------|---------2/4-------|
A|-0---------------|-------0---0-0---0-|-0-0-------------|---------0-0-------|
E|-----------------|-------------------|-----------------|-------------------|
   W                 Q.    E.  S Q   E   E E H.            Q.    E S S Q.

     Am7                       A13sus4     Am7                     A13sus4 Am7
e|-0-0-------------|---0---0---0-0-----|-0-0-------------|---3---0-0-0---0---|
B|-3\1-------------|---1---1--/3-3-----|-3\1-------------|-----1-1-3-3---3\1-|
G|-0-0-------------|---0-0-0---0-0-----|-0-0-------------|-------0-0-0---0-0-|
D|-4\2-------------|---2-2-2--/4-4-----|-4\2-------------|-------2-4-4---4\2-|
A|-0-0-------------|---0-0-0---0-0-----|-0-0-------------|-------0-0-0---0-0-|
E|-----------------|-------------------|-----------------|-------------------|
   E E H.            E E E E.  S Q.      E E H.            E E E S S Q   E E

   Em
e|---0-------------|-----------------|
B|---0-------------|-----------------|
G|-----------------|-----------------|
D|-----------------|-----------------|
A|-----------------|-----------------|
E|-----------------|-----------------|
   E E H.            W

[Verse 2]

                     Am7          A13sus4  Am7  A13sus4
Well how can that be fair at all?
Am7          A13sus4    Am7 
    Repented   changed
            A13sus4  Am7     A13sus4  Am7
Aware where I have   wronged

[Chorus 2]

F#m7 A6       A6/9
Un-  found corrupt
     A        A6 A   Badd9
This song the jailer sings
B  B7       Am7
My time has run

[Interlude 2 - Piano]

 |(Am7)     E      | Em              |          E      | Em              |
 |          E      | Em              |          E      | Em              |

[Interlude 3 - Organ

 | Em              | E5              | Esus4           | Em              |
 | Em7             | Em              | Em7             |                 |
 |                 | Em              |                 |                 |
 |                 |

[Interlude 4 - Guitar/Harmonica]

   Am7                       A13sus4       Am7                     A13sus4
e|-----------------|-----0-0-0-0---x-0-|-0-0---0---------|-----0---0-------|
B|-----------------|-----1-1/3-3---x-3-|-3\1---1---------|-----1---3-------|
G|-0---------------|-0---0-0-0-0---x-0-|-0-0---0---------|-----0---0-------|
D|-2---------------|-2---2-2/4-4---x-4-|-4\2---2---------|-----2---4-------|
A|-0---------------|-0---0-0-0-0---x-0-|-0-0---0---------|-----0---0-------|
E|-----------------|-------------------|-----------------|-----------------|
   W                 Q   E S S Q   E E   E E E E H         Q   E E H

     Am7                     A13sus4       Am7                     A13sus4
e|-0-0---0---0---0-|---0-0-0-0-0-------|-0-0---0---------|-----0-0-0---------|
B|-3\1---1---1---1-|---1-1-1/3-3-------|-3\1---1---------|-----1-1/3-------3-|
G|-0-0---0---0---0-|---0-0-0-0-0-------|-0-0---0---------|-----0-0-0-0-----0-|
D|-4\2---2---------|---2-2-2/4-4-------|-4\2---2---------|-----2-2/4-------4-|
A|-0-0---0---------|---0-0-0-0-0-------|-0-0---0---------|-----0-0-0---------|
E|-----------------|-------------------|-----------------|-------------------|
   E E E Q   E E E   E E E S S H         E E E E H         Q   E S S Q.    E

     Am7                     A13sus4       Am7                     A13sus4
e|-0-0-----0-------|-------0-0---------|-0-0---0---------|-----0---0---------|
B|-3\1-----1-------|-------1/3---------|-3\1---1---------|-----1--/3---------|
G|-0-0---0-0-------|-------0-0---------|-0-0---0---------|-----0---0---------|
D|-4\2---2-2-------|-------2/4---------|-4\2---2---------|-----2--/4---------|
A|-0-0---0-0-------|-------0-0---------|-0-0---0---------|-----0---0---------|
E|-----------------|-------------------|-----------------|-------------------|
   E E E Q H         Q   E S S H         E E E E H         Q   E.  S H      

     Am7                     A13sus4           Am7
e|-0-0---0---------|---0-0-0-0-0-------|-0-0---0---------|-------------------|
B|-3\1---1---------|---1-1-1/3-3-------|-3\1---1---------|-------------------|
G|-0-0---0---------|---0-0-0-0-0-------|-0-0---0---------|-------------------|
D|-4\2---2---------|---2-2-2/4-4-------|-4\2---2---------|-------------------|
A|-0-0---0---------|---0-0-0-0-0-------|-0-0---0---------|-------------------|
E|-----------------|-------------------|-----------------|-------------------|
   E E E E H         E E E S S H         E E E E H         W

[Chorus 3]

F#m7  A6        A6/9     A
   Oh sound the victim's song
    A6 A     Badd9
The trial is gone
    B     B7        D7b9
The trial goes on
F#m7  A6                 A     B7
      Sound the victim's song

[Segue into Eden - 8:01 - Organ/Trumptet]

 | N.C.            | N.C.            | C#m7            | N.C.            |
 | N.C.            | C#m7            | C#m7/D#         | C#m7            |
 | C#m7            | N.C.            |                 | C#m7            |
 | C#m7/D#         | N.C.            | C#m7            | N.C.            |
 |                 | C#m7            | C#m7/D#         | N.C.            |
 |                 | C#m7            |                 ||            
Submit corrections

↑ Back to top | Tablatures and chords for acoustic guitar and electric guitar, ukulele, drums are parodies/interpretations of the original songs. You may use it for private study, scholarship, research or language learning purposes only