Home » T » Talk Talk »

Talk Talk - Runeii Tabs

Artists:  A B C D E F G H I J K L M N O P Q R S T U V W X Y Z # 

Runeii Tabs

(ver. 1) Click to play this song!
Talk Talk
[Intro]
D|-----------------|-----------------|-----------------|-----------------|
A|-----------------|-----------------|-----------------|-----------------|
F|---------4h6p4---|-----------------|-----------------|-----------------|
C|-----------------|--------7\6------|-----------------|-----------------|
G|-----------------|-----------------|-----------------|-7/9\----4/--7---|
D|-0---------------|-----------------|---------------0-|-----------------|

D|-----------------|-----------------|-----------------|-----------------|
A|-----------------|-----------------|-----------------|-----------------|
F|-----------------|-----------------|-----------------|-----------------|
C|-----------------|-----------------|-----------------|-----------------|
G|(7)--------------|(7)--------------|---9/12\---5-----|(5)--------------|
D|-----------------|-----------------|-0---------------|-----------------|

D|-----------------|
A|-----------------|
F|-----------------|
C|-----------------|
G|(5)--------------|
D|-----------------|

D|-----------------|-----------------|-----------------|
A|-----------------|-----------------|-----------------|
F|-----------------|-----------------|-----------------|
C|-----2-----2-----|-----------------|-----------2-----|
G|---------2-----2-|-2/5-5-------5-5-|-5-x-x---2-----2-|
D|-0-----0-----0---|-----------------|-------0-----0---|

                                                        x3
D|------------------|-----------------|------------------|
A|o-----------------|-----------------|-----------------o|
F|------------------|-----------------|------------------|
C|------2-----2-----|-----------------|-----------2------|
G|0---2-----2-----2-|-2/5-5-------5-5-|-5-x-x---2-----2-o|
D|--0-----0-----0---|-----------------|-------0-----0----|

D|-----------------|-----------------|
A|-----------------|-----------------|
F|-----------------|-----------------|
C|-----2-----2\1/2-|-2-2---2---------|
G|---2-----2-------|-----------------|
D|-0-----0---------|-----------------|

[Verse 1]
D|-----------------|-----------------|-----------------|
A|-----------------|-----------------|-----------------|
F|-----------------|-----------------|-----------------|
C|-----------------|-----------------|-----------2-----|
G|-----------------|---5-5-------5-5-|-5-x-x---2-----2-|
D|-----------------|-----------------|-------0-----0---|

                                                       x3
D|------------------|-----------------|------------------|
A|o-----------------|-----------------|-----------------o|
F|------------------|-----------------|------------------|
C|------2-----2-----|-----------------|-----------2------|
G|0---2-----2-----2-|-2/5-5-------5-5-|-5-x-x---2-----2-o|
D|--0-----0-----0---|-----------------|-------0-----0----|

[Interlude]
D|-----------------|-----------------|-----------------|-----------------|
A|-----------------|-----------------|-----------------|-----------------|
F|-----------------|-----------------|-----------------|-----------------|
C|-----2-----2\1/2-|-2-2---2---------|-------------1/2-|-2---------------|
G|---2-----2-------|-----------------|-----------------|-----------------|
D|-0-----0---------|-----------------|-----------------|-----------------|

D|-----------------|-----------------|-----------------|-----------------|
A|-----------------|-----------------|-----------------|-----------------|
F|-----------------|-----------------|-----------------|-----------------|
C|-----------------|-----------------|-----------------|-----------------|
G|-----------------|-----------------|-------9/11--11--|-11\7--7---4---4-|
D|-----------------|-----------------|-----0-----------|-----------------|

D|-----------------|-----------------|-----------------|-----------------|
A|-----------------|-----------------|-----------------|-----------------|
F|-----------------|-----------------|-----------------|-----------------|
C|-----------------|-----------------|-----------------|-----------------|
G|(4)--------------|-----------------|--------/7-------|(7)--7-7-----7---|
D|-----------------|-----------------|-----------------|-----------------|

D|-----------------|-----------------|-----------------|-----------------|
A|-----------------|-----------------|-----------------|-----------------|
F|-----------------|-----------------|-----------------|-----------------|
C|-----------------|-----------------|-----------------|-----------------|
G|(7)--------------|-----------------|-7/11----11\-9---|-9\5-------5-----|
D|-----------------|-----------------|-----------------|-----------------|

D|-----------------|-----------------|
A|-----------------|-----------------|
F|-----------------|-----------------|
C|-----------------|-----------2-----|
G|-----------------|-5-x-x---2-----2-|
D|-----------------|-------0-----0---|

[Verse 2] x8
D|------------------|-----------------|------------------|
A|o-----------------|-----------------|-----------------o|
F|------------------|-----------------|------------------|
C|------2-----2-----|-----------------|-----------2------|
G|0---2-----2-----2-|-2/5-5-------5-5-|-5-x-x---2-----2-o|
D|--0-----0-----0---|-----------------|-------0-----0----|

[Outro]
D|-----------------|-----------------|-----------------|-----------------|
A|-----------------|-----------------|-----------------|-----------------|
F|-----------------|-----------------|-----------------|-----------------|
C|-----2-----2\1/2-|-2-2---2---------|-------------1/2-|-2---------------|
G|---2-----2-------|-----------------|-----------------|-----------------|
D|-0-----0---------|-----------------|-----------------|-----------------|

D|-----------------|-----------------|-----------------|-----------------|
A|-----------------|-----------------|-----------------|-----------------|
F|-----------------|-----------------|-----------------|-----------------|
C|-----------------|-----------------|-----------------|-----------------|
G|-----------------|-----------------|-------9/11--11--|-11\7--7---4---4-|
D|-----------------|-----------------|-----0-----------|-----------------|

D|-----------------|-----------------|-----------------|-----------------|
A|-----------------|-----------------|-----------------|-----------------|
F|-----------------|-----------------|-----------------|-----------------|
C|-----------------|-----------------|-----------------|-----------------|
G|(4)--------------|-----------------|---------7-------|(7)--7-7-----7---|
D|-----------------|-----------------|-----------------|-----------------|

D|-----------------|-----------------|-----------------|-----------------|
A|-----------------|-----------------|-----------------|-----------------|
F|-----------------|-----------------|-----------------|-----------------|
C|-----------------|-----------------|-----------------|-----------------|
G|(7)--------------|-----------------|-7/11----11--9---|-9-5-------5-----|
D|-----------------|-----------------|-----------------|-----------------|

D|-----------------|-----------------|
A|-----------------|-----------------|
F|-----------------|-----------------|
C|-----------------|-----------------|
G|-----------------|-7---------------|
D|-----------------|-----------------|            
Submit corrections

↑ Back to top | Tablatures and chords for acoustic guitar and electric guitar, ukulele, drums are parodies/interpretations of the original songs. You may use it for private study, scholarship, research or language learning purposes only