Home » T » Talk Talk »

Talk Talk - Eden Tabs

Artists:  A B C D E F G H I J K L M N O P Q R S T U V W X Y Z # 

Eden Tabs

(ver. 1) Click to play this song!
Talk Talk
[Intro]

    D                                   G
eb|-----------------|-----------------|-----------------|-----------------|
Bb|-3-3-3---3-3---3-|-3---3-3---3-3---|-3-3-3---3-3---3-|-3---3-3---3-3---|
Gb|-2-2-2---2-2---2-|-2---2-2---2-2---|-2-2-2---2-2---2-|-2---2-2---2-2---|
Db|-----------------|-----------------|-----------------|-----------------|
Ab|-----------------|-----------------|-----------------|-----------------|
Eb|-----------------|-----------------|-----------------|-----------------|
    E E Q   E Q   E   Q   E Q   E Q     E E Q   E Q   E   Q   E Q   E Q

    Bm7                                 G
eb|-----------------|-----------------|-----------------|-----------------|
Bb|-3-3-3---3-3---3-|-3---3-3---3-3---|-3-3-3---3-3---3-|-3---3-3---3-3---|
Gb|-2-2-2---2-2---2-|-2---2-2---2-2---|-2-2-2---2-2---2-|-2---2-2---2-2---|
Db|-----------------|-----------------|-----------------|-----------------|
Ab|-----------------|-----------------|-----------------|-----------------|
Eb|-----------------|-----------------|-----------------|-----------------|
    E E Q   E Q   E   Q   E Q   E Q     E E Q   E Q   E   Q   E Q   E Q

    D                                   G
eb|-----------------|-----------------|-----------------|-----------------|
Bb|-3-3-3---3-3---3-|-3---3-3---3-3---|-3-3-3---3-3---3-|-3---3-3---3-3---|
Gb|-2-2-2---2-2---2-|-2---2-2---2-2---|-2-2-2---2-2---2-|-2---2-2---2-2---|
Db|-----------------|-----------------|-----------------|-----------------|
Ab|-----------------|-----------------|-----------------|-----------------|
Eb|-----------------|-----------------|-----------------|-----------------|
   E E Q   E Q   E   Q   E Q   E Q     E E Q   E Q   E   Q   E Q   E Q

    Bm7                                 G
eb|---------------0-|-0---0-0---2-2---|-2-2-2---2-2-----|-2--0----0--0----|
Bb|-3-3-3---3-3---3-|-3---3-3---3-3---|-3-3-3---3-3---3-|-3--3--3-3--3--3/|
Gb|-2-2-2---2-2---2-|-2---2-2---2-2---|-2-2-2---2-2---2-|-2--2--2-2--2--2/|
Db|-----------------|-----------------|-----------------|-----------------|
Ab|-----------------|-----------------|-----------------|-----------------|
Eb|-----------------|-----------------|-----------------|-----------------|
    E E Q   E Q   E   Q   E Q   E Q     E E Q   E Q   E   E. E. E E. E. E

    Em
eb|-----------------|-----------------|
Bb|/5---------------|-----------------|
Gb|/4---------------|---------x-x-4---|
Db|-----------------|---------------2-|
Ab|-----------------|-----------------|
Eb|-----------------|-----------------|
    W                 H     E S S E E

[Verse 1]

Em      G6           G6/F#  Em
 Summer bled of Eden
Em        G6   G6/A  G6  Em  Em/D  Em/B
 Easter's heir uncrowns
        Esus2/B Esus2
Another desti-  ny lies leeched
 Bm/C#   Bm    Bm/A  Bm/G
Upon the ground

[Chorus 1]

     Bm11       Bm              Am7
Everybody needs someone to live by
          Bm11  Bm     Am7
Everybody needs someone
          Bm11  Bm         Am7      C Cmaj7#11 C
Everybody needs someone to live by
Am7         D
  Rage on omnipotent

[Interlude 1]

   (D)                                  G
eb|-----------------|-----------------|-----------------|-----------------|
Bb|-3-3-3---3-3---3-|-3---3-3---3-3---|-3-3-3---3-3---3-|-3---3-3---3-3---|
Gb|-2-2-2---2-2---2-|-2---2-2---2-2---|-2-2-2---2-2---2-|-2---2-2---2-2---|
Db|-----------------|-----------------|-----------------|-----------------|
Ab|-----------------|-----------------|-----------------|-----------------|
Eb|-----------------|-----------------|-----------------|-----------------|
    E E Q   E Q   E   Q   E Q   E Q     E E Q   E Q   E   Q   E Q   E Q

    Bm7                                 G
eb|-----------------|-----------------|-----------------|-----------------|
Bb|-3-3-3---3-3---3-|-3---3-3---3-3---|-3-3-3---3-3---3-|-3---3-3---3-3---|
Gb|-2-2-2---2-2---2-|-2---2-2---2-2---|-2-2-2---2-2---2-|-2---2-2---2-2---|
Db|-----------------|-----------------|-----------------|-----------------|
Ab|-----------------|-----------------|-----------------|-----------------|
Eb|-----------------|-----------------|-----------------|-----------------|
    E E Q   E Q   E   Q   E Q   E Q     E E Q   E Q   E   Q   E Q   E Q

    D                                   G
eb|-----------------|-----------------|-----------------|-----------------|
Bb|-3-3-3---3-3---3-|-3---3-3---3-3---|-3-3-3---3-3---3-|-3---3-3---3-3---|
Gb|-2-2-2---2-2---2-|-2---2-2---2-2---|-2-2-2---2-2---2-|-2---2-2---2-2---|
Db|-----------------|-----------------|-----------------|-----------------|
Ab|-----------------|-----------------|-----------------|-----------------|
Eb|-----------------|-----------------|-----------------|-----------------|
   E E Q   E Q   E   Q   E Q   E Q     E E Q   E Q   E   Q   E Q   E Q

    Bm7                                 G
eb|---------------2-|-2---2-2---2-2---|-2-2-2---2-2-----|-2--0----0--0----|
Bb|-3-3-3---3-3---3-|-3---3-3---3-3---|-3-3-3---3-3---3-|-3--3--3-3--3--3/|
Gb|-2-2-2---2-2---2-|-2---2-2---2-2---|-2-2-2---2-2---2-|-2--2--2-2--2--2/|
Db|-----------------|-----------------|-----------------|-----------------|
Ab|-----------------|-----------------|-----------------|-----------------|
Eb|-----------------|-----------------|-----------------|-----------------|
    E E Q   E Q   E   Q   E Q   E Q     E E Q   E Q   E   E. E. E E. E. E

    Em
eb|-----------------|---------------------|
Bb|/5---------------|---------------------|
Gb|/4---------------|---0-0-0-0-----------|
Db|-----------------|---2-2-2-2---2---2---|
Ab|-----------------|---2-2-2-2-----2-----|
Eb|-----------------|-0---------0---------|
    W                 E S S S S E E E Q

[Verse 2]

Em         G6             G6/F#   Em
  A gilded wreath on reason
Em         G6   G6/A   G6   Em  Em/D  Em/B
  The flower crushed conceives
           Esus2/B   Esus2
A child of fragrance so much clearer
   Bm/C#  Bm   Bm/A  Bm/G
In legacy

[Chorus 2]

     Bm11       Bm              Am7
Everybody needs someone to live by
          Bm11  Bm     Am7
Everybody needs someone
          Bm11  Bm         Am7      C
Everybody needs someone to live by
Am7         D
  Rage on omnipotent

[Interlude 2]

    D                                   G
eb|-----------------|-----------------|-----------------|-----------------|
Bb|-3-3-3---3-3---3-|-3---3-3---3-3---|-3-3-3---3-3---3-|-3---3-3---3-3---|
Gb|-2-2-2---2-2---2-|-2---2-2---2-2---|-2-2-2---2-2---2-|-2---2-2---2-2---|
Db|-----------------|-----------------|-----------------|-----------------|
Ab|-----------------|-----------------|-----------------|-----------------|
Eb|-----------------|-----------------|-----------------|-----------------|
    E E Q   E Q   E   Q   E Q   E Q     E E Q   E Q   E   Q   E Q   E Q

    Bm7                                 G
eb|-----------------|-----------------|-----------------|-----------------|
Bb|-3-3-3---3-3---3-|-3---3-3---3-3---|-3-3-3---3-3---3-|-3---3-3---3-3---|
Gb|-2-2-2---2-2---2-|-2---2-2---2-2---|-2-2-2---2-2---2-|-2---2-2---2-2---|
Db|-----------------|-----------------|-----------------|-----------------|
Ab|-----------------|-----------------|-----------------|-----------------|
Eb|-----------------|-----------------|-----------------|-----------------|
    E E Q   E Q   E   Q   E Q   E Q     E E Q   E Q   E   Q   E Q   E Q

    D                                   G
eb|-----------------|-----------------|-----------------|-----------------|
Bb|-3-3-3---3-3---3-|-3---3-3---3-3---|-3-3-3---3-3---3-|-3---3-3---3-3---|
Gb|-2-2-2---2-2---2-|-2---2-2---2-2---|-2-2-2---2-2---2-|-2---2-2---2-2---|
Db|-----------------|-----------------|-----------------|-----------------|
Ab|-----------------|-----------------|-----------------|-----------------|
Eb|-----------------|-----------------|-----------------|-----------------|
   E E Q   E Q   E   Q   E Q   E Q     E E Q   E Q   E   Q   E Q   E Q

    Bm7                                 G
eb|-0-0-0---0-0---0-|-0---0-0---0-0---|-2-2-2---2-2-----|-2--0----0--0----|
Bb|-3-3-3---3-3---3-|-3---3-3---3-3---|-3-3-3---3-3---3-|-3--3--3-3--3--3/|
Gb|-2-2-2---2-2---2-|-2---2-2---2-2---|-2-2-2---2-2---2-|-2--2--2-2--2--2/|
Db|-----------------|-----------------|-----------------|-----------------|
Ab|-----------------|-----------------|-----------------|-----------------|
Eb|-----------------|-----------------|-----------------|-----------------|
    E E Q   E Q   E   Q   E Q   E Q     E E Q   E Q   E   E. E. E E. E. E

    Em
eb|-----------------|-----------------|
Bb|/5---------------|-----------------|
Gb|/4---------------|-----------------|
Db|-----------------|-----------------|
Ab|-----------------|-----------------|
Eb|-----------------|-----------------|
    W                 W

[Instrumental]

Em  G6 G6/F# Em
Em  G6 G6/A G6  Em Em/D Em/B
Esus2/B  Esus2

[Guitar Solo]

   A7
eb|---------------0-|(0)-0-------5----|-------0-0-------|------------0----|
Bb|---------2-----2-|(2)-2--2-0-----2-|(2)----2-2--2----|-------2-------2-|
Gb|-------2----0----|---------------2-|(2)----2-2--0----|---------0-----2-|
Db|-----------------|-----------------|-----------------|-----------------|
Ab|-----------------|-----------------|-----------------|-----------------|
Eb|-----------------|-----------------|-----------------|-----------------|
    Q.    E E. E. E   E. E. E E. E. E   Q.    E E. E. E   Q.    E E. E. E

eb|------------0----|---------0-------|-----------------|----0--------0---|
Bb|---2-2-2-------2-|-2--2-------2----|-----------------|-2--2--2-----2-2-|
Gb|---2-2-2-0-------|-2--2--0---------|---------------2-|-2--2--2-------2-|
Db|-----------------|-----------------|-----------------|-----------------|
Ab|-----------------|-----------------|-----------------|-----------------|
Eb|-----------------|-----------------|-----------------|-----------------|
    E E E E E. E. E   E. E. E E. E. E   H.          E E   E. E. E Q   E E

eb|---------0--0--0-|-----------------|
Bb|-2--2--2-2--2--2-|-2---------------|
Gb|-2--2--2-0--0--0-|-0---------------|
Db|-----------------|-----------------|
Ab|-----------------|-----------------|
Eb|-----------------|-----------------|
    E. E. E E. E. E   E

A

[Outro]

    D                                   G
eb|-----------------|-----------------|-----------------|-----------------|
Bb|-3-3-3---3-3---3-|-3---3-3---3-3---|-3-3-3---3-3---3-|-3---3-3---3-3---|
Gb|-2-2-2---2-2---2-|-2---2-2---2-2---|-2-2-2---2-2---2-|-2---2-2---2-2---|
Db|-----------------|-----------------|-----------------|-----------------|
Ab|-----------------|-----------------|-----------------|-----------------|
Eb|-----------------|-----------------|-----------------|-----------------|
    E E Q   E Q   E   Q   E Q   E Q     E E Q   E Q   E   Q   E Q   E Q

    Bm7                                 G
eb|-----------------|-----------------|-----------------|-----------------|
Bb|-3-3-3---3-3---3-|-3---3-3---3-3---|-3-3-3---3-3---3-|-3---3-3---3-3---|
Gb|-2-2-2---2-2---2-|-2---2-2---2-2---|-2-2-2---2-2---2-|-2---2-2---2-2---|
Db|-----------------|-----------------|-----------------|-----------------|
Ab|-----------------|-----------------|-----------------|-----------------|
Eb|-----------------|-----------------|-----------------|-----------------|
    E E Q   E Q   E   Q   E Q   E Q     E E Q   E Q   E   Q   E Q   E Q

    D                                   G
eb|-----------------|-----------------|-----------------|-----------------|
Bb|-3-3-3---3-3---3-|-3---3-3---3-3---|-3-3-3---3-3---3-|-3---3-3---3-3---|
Gb|-2-2-2---2-2---2-|-2---2-2---2-2---|-2-2-2---2-2---2-|-2---2-2---2-2---|
Db|-----------------|-----------------|-----------------|-----------------|
Ab|-----------------|-----------------|-----------------|-----------------|
Eb|-----------------|-----------------|-----------------|-----------------|
   E E Q   E Q   E   Q   E Q   E Q     E E Q   E Q   E   Q   E Q   E Q

    Bm7                                 G
eb|-----------------|-2---2-2---2-2---|-2-2-2---2-2-----|-2--0----0--0--2-|
Bb|-3-3-3---3-3---3-|-3---3-3---3-3---|-3-3-3---3-3---3-|-3--3--3-3--3--3-|
Gb|-2-2-2---2-2---2-|-2---2-2---2-2---|-2-2-2---2-2---2-|-2--2--2-2--2--2-|
Db|-----------------|-----------------|-----------------|-----------------|
Ab|-----------------|-----------------|-----------------|-----------------|
Eb|-----------------|-----------------|-----------------|-----------------|
    E E Q   E Q   E   Q   E Q   E Q     E E Q   E Q   E   E. E. E E. E. E

    D
eb|-----------------|-----------------|-----------------|-----------------||
Bb|-3-3-3---3-3---3-|-3---3-3---3-3---|-3-3-3---3-3---3-|-3---3-3---3-3---||
Gb|-2-2-2---2-2---2-|-2---2-2---2-2---|-2-2-2---2-2---2-|-2---2-2---2-2---||
Db|-----------------|-----------------|-----------------|-----------------||
Ab|-----------------|-----------------|-----------------|-----------------||
Eb|-----------------|-----------------|-----------------|-----------------||
    E E Q   E Q   E   Q   E Q   E Q     E E Q   E Q   E   Q   E Q   E Q            
Submit corrections

↑ Back to top | Tablatures and chords for acoustic guitar and electric guitar, ukulele, drums are parodies/interpretations of the original songs. You may use it for private study, scholarship, research or language learning purposes only