Home » T » Talk Talk »

Talk Talk - Ascension Day Tabs

Artists:  A B C D E F G H I J K L M N O P Q R S T U V W X Y Z # 

Ascension Day Tabs

(ver. 1) Click to play this song!
Talk Talk
[Intro]

E|-----------------------------|-----------------------------|-----------------------------|
B|-----------------7-7---------|---3-----3-------------------|-----------------------------|
G|---7-9-9---9-------------9-7-|-5-5-5---5-------------------|-----------------------------|
D|-----------------------------|-----------------------------|-----------------------------|
A|-----------------------------|-----------------------------|-----------------------------|
E|-----------------------------|-----------------------------|-----------------------------|

E|-----------------------------|-----------------------------|-----------------------------|
B|-----------------7-7---------|---3-------------------------|-----------------------------|
G|---7-9-9---9-------------9-7-|-5-5-5---5-------------------|-----------------------------|
D|-----------------------------|-----------------------------|-----------------------------|
A|-----------------------------|-----------------------------|-----------------------------|
E|-----------------------------|-----------------------------|-----------------------------|

E|-----------------------------|-----------------------------|-----------------------------|
B|-----------------7-7---------|---3-----3-------------------|-----------------------------|
G|---7-9-9---9-------------9-7-|-5-5-5---5-------------------|-----------------------------|
D|-----------------------------|-----------------------------|-----------------------------|
A|-----------------------------|-----------------------------|-----------------------------|
E|-----------------------------|-----------------------------|-----------------------------|

A5

Am11

[Verse 1]
Am11
Bet I'll be damned
Am11
Built the debt I turned 2's up today
Am11
Bet I'll be damned
Am11
Gets harder to sense to sail

[Chorus 1]
F6 F       
   Farewell 
F      Dm          Am
Mother numb to and devout to
G                          Am
   Reckon luck sees us the same

   G                                        Am
E|--------------------------------|--------------------------------|
B|-3------3------3------3-----3---|(3)-----------------------------|
G|-4------2------4------2-----4---|(4)------2----------------------|
D|-0------0------0------0-----0---|(0)------2----------------------|
A|--------------------------------|--------------------------------|
E|-3------3------3------3-----3---|(3)-----------------------------|

[Verse 2]
Am11          Am7  Am6
Weighted my hand
Am11
    Kill the bet
Am11                       C
I'll burn on judgement day
Am11
   Weighted my hand
Am11
Get hard hit to sin to sail

[Chorus 2]
F       
   Farewell 
F      Dm          Am
Mother numb to and devout to
F
   Double deal a season wrapt
    Dm     Am
Too lax to lapse so soon
G                          Am
   Reckon luck sees us the same

   G                                        Am
E|--------------------------------|--------------------------------|
B|-3------3------3------3-----3---|(3)-----------------------------|
G|-4------2------4------2-----4---|(4)------2----------------------|
D|-0------0------0------0-----0---|(0)------2----------------------|
A|--------------------------------|--------------------------------|
E|-3------3------3------3-----3---|(3)-----------------------------|

[Instrumental]
Em

Bm  Fm7b5  Am


E|-----------------------------|-----------------------------|-----------------------------|
B|-----------------7-7---------|---3-----3-------------------|-----------------------------|
G|---7-9-9---9-------------9-7-|-5-5-5---5-------------------|-----------------------------|
D|-----------------------------|-----------------------------|-----------------------------|
A|-----------------------------|-----------------------------|-----------------------------|
E|-----------------------------|-----------------------------|-----------------------------|

E|-----------------------------|-----------------------------|-----------------------------|
B|-----------------7-7---------|---3-----3-------------------|-----------------------------|
G|---7-9-9---9-------------9-7-|-5-5-5---5-------------------|-----------------------------|
D|-----------------------------|-----------------------------|-----------------------------|
A|-----------------------------|-----------------------------|-----------------------------|
E|-----------------------------|-----------------------------|-----------------------------|

E|-----------------------------|-----------------------------|-----------------------------|
B|-----------------7-7---------|-3---3---3-------------------|-----------------------------|
G|---7-9-9---9-------------9-7-|-5-5-5---5-------------------|-----------------------------|
D|-----------------------------|-----------------------------|-----------------------------|
A|-----------------------------|-----------------------------|-----------------------------|
E|-----------------------------|-----------------------------|-----------------------------|

A5

Am11

[Verse 3]
Am11
Bed on my back
Am11
Dealt my hell
Am11
I've dealt my months of May
Am11
Bed on my back
Am11
Get parted ascension day

[Chorus 3]
F       
   Farewell 
F      Dm          Am
Mother numb to and devout to
G                          Am
   Reckon luck sees us the same
G                          Am
   Reckon luck sees us the same

   G                                        Am
E|--------------------------------|--------------------------------|
B|-3------3------3------3-----3---|(3)-----------------------------|
G|-4------2------4------2-----4---|(4)------2----------------------|
D|-0------0------0------0-----0---|(0)------2----------------------|
A|--------------------------------|--------------------------------|
E|-3------3------3------3-----3---|(3)-----------------------------|

[Outro]
A5

Am11            
Submit corrections

↑ Back to top | Tablatures and chords for acoustic guitar and electric guitar, ukulele, drums are parodies/interpretations of the original songs. You may use it for private study, scholarship, research or language learning purposes only