» » »

Talking Heads - What A Day That Was Bass

Artists:  A B C D E F G H I J K L M N O P Q R S T U V W X Y Z # 

What A Day That Was Bass

(ver. 1) Click to play this song!
Talking Heads
 Rating:
4/5 (4 votes)


 What A Day That Was lessons Tabs too difficult? Try these video lessons and learn fast
 
                -------------------------------------------------------------------------------
			     What a Day that Was - Talking Heads
-------------------------------------------------------------------------------


Tuning: Standard

This is from the version on Stop Making Sense.  It’s pretty straight forward.  The 
little walk downs all start on the off beat.

                                                  2 times
Verse
G|---------------------------------|-------------------|---------------------|
D|*--------------------------------|------------------*|---------------------|
A|*----7--7-----7--7------7--7-----|----5--3--2---2-0-*|---------------------|
E|--0--------0---------0-----------|-------------------|---------------------|
                                                 4 times
G|---------------------------------|-------------------|---------------------|
D|*----5--5------5--5-----5--5-----|------------------*|---------------------|
A|*--------------------------------|----5--3--2---2-0-*|---------------------|
E|--3---------3--------3-----------|-------------------|---------------------|


Chorus                                                                2 times
G|----------------|----------------|----------------|------------------------|
D|*--7-------7----|---5-------5----|----------------|---7-------7-----------*|
A|*5----5--5----5-|-3---3---3----3-|---5-------5----|-5----5--5---5---------*|
E|----------------|----------------|-3----3--3----3-|------------------------|


Bridge
G|----------------|----------------|----------------|------------------------|
D|---3-------3----|---3------------|---3-------3----|---3--------------------|
A|-1----1--1----1-|-1----1----5----|-1----1--1----1-|-1----1----5------------|
E|----------------|---------3----3-|----------------|---------3-----3--------|

G|----------------|----------------|----------------|------------------------|
D|---3-------3----|---8-------10---|---3-------3----|---8--------10----------|
A|-1----1--1----1-|-6---6---8----8-|-1----1--1----1-|-6----6--8------8-------|
E|----------------|----------------|----------------|------------------------|


Solo                                             4 times
G|---------------------------------|-------------------|---------------------|
D|*--------------------------------|------------------*|---------------------|
A|*-----7--7-----7--7-----7--7-----|----5--3--2----0--*|---------------------|
E|---0--------0--------0-----------|-------------------|---------------------|


Verse

Chorus

Outro     We’re going Boom boom boom
G|-------------------------------|------------------|------------------------|
D|*------------------------------|-----------------*|------------------------|
A|*-----7--7-----7--7-----7--7---|----5--3--2--2-0-*|-----5--3---------------|
E|---0--------0--------0---------|------------------|-----------0------------|
            
Submit corrections



        What A Day That Was lessons Hard to play? Try these video lessons and learn fast What A Day That Was lessons
        
↑ Back to top | Tablatures and chords for acoustic guitar and electric guitar, ukulele, drums are parodies/interpretations of the original songs. You may use it for private study, scholarship, research or language learning purposes only