» » »

Taking Back Sunday - Makedamnsure Bass

Artists:  A B C D E F G H I J K L M N O P Q R S T U V W X Y Z # 

Makedamnsure Bass

(ver. 3) Click to play this song!
Taking Back Sunday
 Rating:
4/5 (4 votes)


 Makedamnsure lessons Tabs too difficult? Try these video lessons and learn fast
 
                
Verse 1
G -------------------------------------------------------------------------|
D -------------------------------------------------------------------------|
A ----------1111-4444--66666666-22222222------------------1111-6(x8)-------|
E -22222222-----------------------------22222222------1111-----------5(x8)-|

Pre-Chorus 1
G -------------------------------------|
D -------------------------------------|
A -2222222222222222-11111111-44444444--|    (X 2)
E -------------------------------------|


Chorus
G ------------------------------------------------------------------------|
D ------------------------------------------------------------------------|
A ------------------4444444444444/976-------------------------------------|
E -2222222222222222-------------------6666666666666666-7777777777777777---|

Verse 2
G -------------------------------------------------------------------------|
D -------------------------------------------------------------------------|
A ----------1111-4444--66666666-22222222------------------1111-6(x8)-------|
E -22222222-----------------------------22222222------1111-----------5(x8)-|

Pre-Chorus 2
G -------------------------------------|
D -------------------------------------|
A -2222222222222222-11111111-44444444--|
E -------------------------------------|

G -------------------------------------|
D -------------------------------------|
A -66666666-88888888-11111111-44444444-|
E -------------------------------------|

Chorus
G ------------------------------------------------------------------------|
D ------------------------------------------------------------------------|
A ------------------4444444444444/976-------------------------------------|
E -2222222222222222-------------------6666666666666666-7777777777777777---|

Bridge
G --------------------------------------------------------------------|
D --------------------------------------------------------------------|
A -6666666666666666-4444444444444444-99999999999999999999999999999999-|
E --------------------------------------------------------------------|

G -----------------------------------------------------|
D -----------------------------------------------------|
A -2222222222222222--6666666666666666-4444444444444444-|
E -----------------------------------------------------|


G ---------------------------------------------------|
D ---------------------------------------------------|
A -99999999999999999999999999999999------------------|
E ----------------------------------7777777777777777-|

G -------------------------------------------------------------------|
D -------------------------------------------------------------------|
A -99999999999999999999999999999999-16161616161616161616161616161616-|
E -------------------------------------------------------------------|

Chorus
G ------------------------------------------------------------------------|
D ------------------------------------------------------------------------|
A ------------------4444444444444/976-------------------------------------|
E -2222222222222222-------------------6666666666666666-7777777777777777---|

G ------|
D ------|
A -2/16-|
E ------|

Chorus
G ------------------------------------------------------------------------|
D ------------------------------------------------------------------------|
A ------------------4444444444444/976-------------------------------------|
E -2222222222222222-------------------6666666666666666-7777777777777777---|


End on...
G ------|
D ------|
A ------|
E -2----|
            
Submit corrections



        Makedamnsure lessons Hard to play? Try these video lessons and learn fast Makedamnsure lessons
        
↑ Back to top | Tablatures and chords for acoustic guitar and electric guitar, ukulele, drums are parodies/interpretations of the original songs. You may use it for private study, scholarship, research or language learning purposes only